  0
SECTION
  2
HEADER
  9
$ACADVER
  1
AC1018
  9
$ACADMAINTVER
 70
     0
  9
$DWGCODEPAGE
  3
UNDEFINED
  9
$INSBASE
 10
0.0
 20
0.0
 30
0.0
  9
$EXTMIN
 10
1.000000000000000E+20
 20
1.000000000000000E+20
 30
1.000000000000000E+20
  9
$EXTMAX
 10
-1.000000000000000E+20
 20
-1.000000000000000E+20
 30
-1.000000000000000E+20
  9
$LIMMIN
 10
0.0
 20
0.0
  9
$LIMMAX
 10
12.0
 20
9.0
  9
$ORTHOMODE
 70
     0
  9
$REGENMODE
 70
     1
  9
$FILLMODE
 70
     1
  9
$QTEXTMODE
 70
     0
  9
$MIRRTEXT
 70
     1
  9
$LTSCALE
 40
1.0
  9
$ATTMODE
 70
     1
  9
$TEXTSIZE
 40
0.2
  9
$TRACEWID
 40
0.05
  9
$TEXTSTYLE
  7
Standard
  9
$CLAYER
  8
0
  9
$CELTYPE
  6
ByLayer
  9
$CECOLOR
 62
   256
  9
$CELTSCALE
 40
1.0
  9
$DISPSILH
 70
     0
  9
$DIMSCALE
 40
1.0
  9
$DIMASZ
 40
0.18
  9
$DIMEXO
 40
0.0625
  9
$DIMDLI
 40
0.38
  9
$DIMRND
 40
0.0
  9
$DIMDLE
 40
0.0
  9
$DIMEXE
 40
0.18
  9
$DIMTP
 40
0.0
  9
$DIMTM
 40
0.0
  9
$DIMTXT
 40
0.18
  9
$DIMCEN
 40
0.09
  9
$DIMTSZ
 40
0.0
  9
$DIMTOL
 70
     0
  9
$DIMLIM
 70
     0
  9
$DIMTIH
 70
     1
  9
$DIMTOH
 70
     1
  9
$DIMSE1
 70
     0
  9
$DIMSE2
 70
     0
  9
$DIMTAD
 70
     0
  9
$DIMZIN
 70
     0
  9
$DIMBLK
  1

  9
$DIMASO
 70
     1
  9
$DIMSHO
 70
     1
  9
$DIMPOST
  1

  9
$DIMAPOST
  1

  9
$DIMALT
 70
     0
  9
$DIMALTD
 70
     2
  9
$DIMALTF
 40
25.4
  9
$DIMLFAC
 40
1.0
  9
$DIMTOFL
 70
     0
  9
$DIMTVP
 40
0.0
  9
$DIMTIX
 70
     0
  9
$DIMSOXD
 70
     0
  9
$DIMSAH
 70
     0
  9
$DIMBLK1
  1

  9
$DIMBLK2
  1

  9
$DIMSTYLE
  2
Standard
  9
$DIMCLRD
 70
     0
  9
$DIMCLRE
 70
     0
  9
$DIMCLRT
 70
     0
  9
$DIMTFAC
 40
1.0
  9
$DIMGAP
 40
0.09
  9
$DIMJUST
 70
     0
  9
$DIMSD1
 70
     0
  9
$DIMSD2
 70
     0
  9
$DIMTOLJ
 70
     1
  9
$DIMTZIN
 70
     0
  9
$DIMALTZ
 70
     0
  9
$DIMALTTZ
 70
     0
  9
$DIMUPT
 70
     0
  9
$DIMDEC
 70
     4
  9
$DIMTDEC
 70
     4
  9
$DIMALTU
 70
     2
  9
$DIMALTTD
 70
     2
  9
$DIMTXSTY
  7
Standard
  9
$DIMAUNIT
 70
     0
  9
$DIMADEC
 70
     0
  9
$DIMALTRND
 40
0.0
  9
$DIMAZIN
 70
     0
  9
$DIMDSEP
 70
    46
  9
$DIMATFIT
 70
     3
  9
$DIMFRAC
 70
     0
  9
$DIMLDRBLK
  1

  9
$DIMLUNIT
 70
     2
  9
$DIMLWD
 70
    -2
  9
$DIMLWE
 70
    -2
  9
$DIMTMOVE
 70
     0
  9
$LUNITS
 70
     2
  9
$LUPREC
 70
     4
  9
$SKETCHINC
 40
0.1
  9
$FILLETRAD
 40
0.5
  9
$AUNITS
 70
     0
  9
$AUPREC
 70
     0
  9
$MENU
  1
.
  9
$ELEVATION
 40
0.0
  9
$PELEVATION
 40
0.0
  9
$THICKNESS
 40
0.0
  9
$LIMCHECK
 70
     0
  9
$CHAMFERA
 40
0.5
  9
$CHAMFERB
 40
0.5
  9
$CHAMFERC
 40
1.0
  9
$CHAMFERD
 40
0.0
  9
$SKPOLY
 70
     0
  9
$TDCREATE
 40
2455004.757453704
  9
$TDUCREATE
 40
2455005.090787037
  9
$TDUPDATE
 40
2455004.757453715
  9
$TDUUPDATE
 40
2455005.090787048
  9
$TDINDWG
 40
0.0000000116
  9
$TDUSRTIMER
 40
0.0000000116
  9
$USRTIMER
 70
     1
  9
$ANGBASE
 50
0.0
  9
$ANGDIR
 70
     0
  9
$PDMODE
 70
     0
  9
$PDSIZE
 40
0.0
  9
$PLINEWID
 40
0.0
  9
$SPLFRAME
 70
     0
  9
$SPLINETYPE
 70
     6
  9
$SPLINESEGS
 70
     8
  9
$HANDSEED
  5
1AF
  9
$SURFTAB1
 70
     6
  9
$SURFTAB2
 70
     6
  9
$SURFTYPE
 70
     6
  9
$SURFU
 70
     6
  9
$SURFV
 70
     6
  9
$UCSBASE
  2

  9
$UCSNAME
  2

  9
$UCSORG
 10
0.0
 20
0.0
 30
0.0
  9
$UCSXDIR
 10
1.0
 20
0.0
 30
0.0
  9
$UCSYDIR
 10
0.0
 20
1.0
 30
0.0
  9
$UCSORTHOREF
  2

  9
$UCSORTHOVIEW
 70
     0
  9
$UCSORGTOP
 10
0.0
 20
0.0
 30
0.0
  9
$UCSORGBOTTOM
 10
0.0
 20
0.0
 30
0.0
  9
$UCSORGLEFT
 10
0.0
 20
0.0
 30
0.0
  9
$UCSORGRIGHT
 10
0.0
 20
0.0
 30
0.0
  9
$UCSORGFRONT
 10
0.0
 20
0.0
 30
0.0
  9
$UCSORGBACK
 10
0.0
 20
0.0
 30
0.0
  9
$PUCSBASE
  2

  9
$PUCSNAME
  2

  9
$PUCSORG
 10
0.0
 20
0.0
 30
0.0
  9
$PUCSXDIR
 10
1.0
 20
0.0
 30
0.0
  9
$PUCSYDIR
 10
0.0
 20
1.0
 30
0.0
  9
$PUCSORTHOREF
  2

  9
$PUCSORTHOVIEW
 70
     0
  9
$PUCSORGTOP
 10
0.0
 20
0.0
 30
0.0
  9
$PUCSORGBOTTOM
 10
0.0
 20
0.0
 30
0.0
  9
$PUCSORGLEFT
 10
0.0
 20
0.0
 30
0.0
  9
$PUCSORGRIGHT
 10
0.0
 20
0.0
 30
0.0
  9
$PUCSORGFRONT
 10
0.0
 20
0.0
 30
0.0
  9
$PUCSORGBACK
 10
0.0
 20
0.0
 30
0.0
  9
$USERI1
 70
     0
  9
$USERI2
 70
     0
  9
$USERI3
 70
     0
  9
$USERI4
 70
     0
  9
$USERI5
 70
     0
  9
$USERR1
 40
0.0
  9
$USERR2
 40
0.0
  9
$USERR3
 40
0.0
  9
$USERR4
 40
0.0
  9
$USERR5
 40
0.0
  9
$WORLDVIEW
 70
     1
  9
$SHADEDGE
 70
     3
  9
$SHADEDIF
 70
    70
  9
$TILEMODE
 70
     1
  9
$MAXACTVP
 70
    64
  9
$PINSBASE
 10
0.0
 20
0.0
 30
0.0
  9
$PLIMCHECK
 70
     0
  9
$PEXTMIN
 10
1.000000000000000E+20
 20
1.000000000000000E+20
 30
1.000000000000000E+20
  9
$PEXTMAX
 10
-1.000000000000000E+20
 20
-1.000000000000000E+20
 30
-1.000000000000000E+20
  9
$PLIMMIN
 10
0.0
 20
0.0
  9
$PLIMMAX
 10
12.0
 20
9.0
  9
$UNITMODE
 70
     0
  9
$VISRETAIN
 70
     1
  9
$PLINEGEN
 70
     0
  9
$PSLTSCALE
 70
     1
  9
$TREEDEPTH
 70
  3020
  9
$CMLSTYLE
  2
Standard
  9
$CMLJUST
 70
     0
  9
$CMLSCALE
 40
1.0
  9
$PROXYGRAPHICS
 70
     1
  9
$MEASUREMENT
 70
     0
  9
$CELWEIGHT
370
    -1
  9
$ENDCAPS
280
     0
  9
$JOINSTYLE
280
     0
  9
$LWDISPLAY
290
     0
  9
$INSUNITS
 70
     1
  9
$HYPERLINKBASE
  1

  9
$STYLESHEET
  1

  9
$XEDIT
290
     1
  9
$CEPSNTYPE
380
     0
  9
$PSTYLEMODE
290
     1
  9
$FINGERPRINTGUID
  2
{0B810098-65A7-13ED-9380-5324F3CC0B49}
  9
$VERSIONGUID
  2
{FAEB1C32-E019-11D5-929B-00C0DF256EC4}
  9
$EXTNAMES
290
     1
  9
$PSVPSCALE
 40
0.0
  9
$OLESTARTUP
290
     0
  9
$SORTENTS
280
   127
  9
$INDEXCTL
280
     0
  9
$HIDETEXT
280
     1
  9
$XCLIPFRAME
290
     0
  9
$HALOGAP
280
     0
  9
$OBSCOLOR
 70
   257
  9
$OBSLTYPE
280
     0
  9
$INTERSECTIONDISPLAY
280
     0
  9
$INTERSECTIONCOLOR
 70
   257
  9
$DIMASSOC
280
     2
  9
$PROJECTNAME
  1

  0
ENDSEC
  0
SECTION
  2
CLASSES
  0
CLASS
  1
ACDBDICTIONARYWDFLT
  2
AcDbDictionaryWithDefault
  3
ObjectDBX Classes
 90
        0
 91
        4
280
     0
281
     0
  0
CLASS
  1
VISUALSTYLE
  2
AcDbVisualStyle
  3
ObjectDBX Classes
 90
     4095
 91
        4
280
     0
281
     0
  0
CLASS
  1
SCALE
  2
AcDbScale
  3
ObjectDBX Classes
 90
     1153
 91
        4
280
     0
281
     0
  0
CLASS
  1
DICTIONARYVAR
  2
AcDbDictionaryVar
  3
ObjectDBX Classes
 90
        0
 91
        4
280
     0
281
     0
  0
ENDSEC
  0
SECTION
  2
TABLES
  0
TABLE
  2
VPORT
  5
8
330
0
100
AcDbSymbolTable
 70
     1
  0
VPORT
  5
29
330
8
100
AcDbSymbolTableRecord
100
AcDbViewportTableRecord
  2
*Active
 70
     0
 10
0.0
 20
0.0
 11
1.0
 21
1.0
 12
10.42990654205607
 22
4.5
 13
0.0
 23
0.0
 14
0.5
 24
0.5
 15
0.5
 25
0.5
 16
0.0
 26
0.0
 36
1.0
 17
0.0
 27
0.0
 37
0.0
 40
9.0
 41
1.972972972850329
 42
50.0
 43
0.0
 44
0.0
 50
0.0
 51
0.0
 71
     0
 72
   100
 73
     1
 74
     3
 75
     0
 76
     0
 77
     0
 78
     0
281
     0
 65
     1
110
0.0
120
0.0
130
0.0
111
1.0
121
0.0
131
0.0
112
0.0
122
1.0
132
0.0
 79
     0
146
0.0
  0
ENDTAB
  0
TABLE
  2
LTYPE
  5
5
330
0
100
AcDbSymbolTable
 70
    11
  0
LTYPE
  5
14
330
5
100
AcDbSymbolTableRecord
100
AcDbLinetypeTableRecord
  2
ByBlock
 70
     0
  3

 72
    65
 73
     0
 40
0.0
  0
LTYPE
  5
15
330
5
100
AcDbSymbolTableRecord
100
AcDbLinetypeTableRecord
  2
ByLayer
 70
     0
  3

 72
    65
 73
     0
 40
0.0
  0
LTYPE
  5
16
330
5
100
AcDbSymbolTableRecord
100
AcDbLinetypeTableRecord
  2
Continuous
 70
     0
  3
Solid line
 72
    65
 73
     0
 40
0.0
  0
LTYPE
  5
60
330
5
100
AcDbSymbolTableRecord
100
AcDbLinetypeTableRecord
  2
Stitch_G
 70
     0
  3
Graphite's line style                   
 72
    65
 73
     2
 40
1.739999949932098
 49
0.8699999749660492
 74
     0
 49
-0.8699999749660492
 74
     0
  0
LTYPE
  5
61
330
5
100
AcDbSymbolTableRecord
100
AcDbLinetypeTableRecord
  2
Cutting_G
 70
     0
  3
Graphite's line style                   
 72
    65
 73
     6
 40
17.60999992489815
 49
12.0
 74
     0
 49
-0.8699999749660492
 74
     0
 49
1.5
 74
     0
 49
-0.8699999749660492
 74
     0
 49
1.5
 74
     0
 49
-0.8699999749660492
 74
     0
  0
LTYPE
  5
62
330
5
100
AcDbSymbolTableRecord
100
AcDbLinetypeTableRecord
  2
Divide_G
 70
     0
  3
Graphite's line style                   
 72
    65
 73
     6
 40
9.359999924898148
 49
6.0
 74
     0
 49
-0.8699999749660492
 74
     0
 49
0.375
 74
     0
 49
-0.8699999749660492
 74
     0
 49
0.375
 74
     0
 49
-0.8699999749660492
 74
     0
  0
LTYPE
  5
63
330
5
100
AcDbSymbolTableRecord
100
AcDbLinetypeTableRecord
  2
Border_G
 70
     0
  3
Graphite's line style                   
 72
    65
 73
     6
 40
14.98499992489815
 49
6.0
 74
     0
 49
-0.8699999749660492
 74
     0
 49
6.0
 74
     0
 49
-0.8699999749660492
 74
     0
 49
0.375
 74
     0
 49
-0.8699999749660492
 74
     0
  0
LTYPE
  5
64
330
5
100
AcDbSymbolTableRecord
100
AcDbLinetypeTableRecord
  2
Dashdot_G
 70
     0
  3
Graphite's line style                   
 72
    65
 73
     4
 40
8.114999949932098
 49
6.0
 74
     0
 49
-0.8699999749660492
 74
     0
 49
0.375
 74
     0
 49
-0.8699999749660492
 74
     0
  0
LTYPE
  5
65
330
5
100
AcDbSymbolTableRecord
100
AcDbLinetypeTableRecord
  2
Phantom_G
 70
     0
  3
Graphite's line style                   
 72
    65
 73
     6
 40
11.60999992489815
 49
6.0
 74
     0
 49
-0.8699999749660492
 74
     0
 49
1.5
 74
     0
 49
-0.8699999749660492
 74
     0
 49
1.5
 74
     0
 49
-0.8699999749660492
 74
     0
  0
LTYPE
  5
66
330
5
100
AcDbSymbolTableRecord
100
AcDbLinetypeTableRecord
  2
Hidden_G
 70
     0
  3
Graphite's line style                   
 72
    65
 73
     2
 40
2.369999974966049
 49
1.5
 74
     0
 49
-0.8699999749660492
 74
     0
  0
LTYPE
  5
67
330
5
100
AcDbSymbolTableRecord
100
AcDbLinetypeTableRecord
  2
Dashed_G
 70
     0
  3
Graphite's line style                   
 72
    65
 73
     2
 40
4.5
 49
3.0
 74
     0
 49
-1.5
 74
     0
  0
LTYPE
  5
68
330
5
100
AcDbSymbolTableRecord
100
AcDbLinetypeTableRecord
  2
Center_G
 70
     0
  3
Graphite's line style                   
 72
    65
 73
     4
 40
9.239999949932098
 49
6.0
 74
     0
 49
-0.8699999749660492
 74
     0
 49
1.5
 74
     0
 49
-0.8699999749660492
 74
     0
  0
LTYPE
  5
69
330
5
100
AcDbSymbolTableRecord
100
AcDbLinetypeTableRecord
  2
Dotted_G
 70
     0
  3

 72
    65
 73
     2
 40
0.1001
 49
0.0001
 74
     0
 49
-0.1
 74
     2
 75
     0
340
0
 46
0.0
 50
0.0
 44
0.0
 45
0.0
  9
.
  0
ENDTAB
  0
TABLE
  2
LAYER
  5
2
330
0
100
AcDbSymbolTable
 70
     5
  0
LAYER
  5
10
330
2
100
AcDbSymbolTableRecord
100
AcDbLayerTableRecord
  2
0
 70
     0
 62
     7
  6
Continuous
370
    -3
390
F
  0
LAYER
  5
6A
330
2
100
AcDbSymbolTableRecord
100
AcDbLayerTableRecord
  2
Layer1
 70
     0
 62
     7
  6
Continuous
370
    -3
390
F
  0
LAYER
  5
6B
330
2
100
AcDbSymbolTableRecord
100
AcDbLayerTableRecord
  2
Construction
 70
     0
 62
     7
  6
Continuous
370
    -3
390
F
  0
LAYER
  5
6C
330
2
100
AcDbSymbolTableRecord
100
AcDbLayerTableRecord
  2
Dimension
 70
     0
 62
     7
  6
Continuous
370
    -3
390
F
  0
LAYER
  5
6D
330
2
100
AcDbSymbolTableRecord
100
AcDbLayerTableRecord
  2
Constraints
 70
     0
 62
     7
  6
Continuous
370
    -3
390
F
  0
ENDTAB
  0
TABLE
  2
STYLE
  5
3
330
0
100
AcDbSymbolTable
 70
     4
  0
STYLE
  5
11
330
3
100
AcDbSymbolTableRecord
100
AcDbTextStyleTableRecord
  2
Standard
 70
     0
 40
0.0
 41
1.0
 50
0.0
 71
     0
 42
0.2
  3
txt
  4

  0
STYLE
  5
3B
330
3
100
AcDbSymbolTableRecord
100
AcDbTextStyleTableRecord
  2
OdaShxStyle
 70
     0
 40
0.0
 41
1.0
 50
0.0
 71
     0
 42
0.2
  3
txt
  4

  0
STYLE
  5
3C
330
3
100
AcDbSymbolTableRecord
100
AcDbTextStyleTableRecord
  2
OdaTtfStyle
 70
     0
 40
0.0
 41
1.0
 50
0.0
 71
     0
 42
0.2
  3
VERDANA.TTF
  4

1001
ACAD
1000
Verdana
1071
       34
  0
STYLE
  5
3D
330
3
100
AcDbSymbolTableRecord
100
AcDbTextStyleTableRecord
  2

 70
     1
 40
0.0
 41
1.0
 50
0.0
 71
     0
 42
22.45
  3
ltypeshp.shx
  4

  0
ENDTAB
  0
TABLE
  2
VIEW
  5
6
330
0
100
AcDbSymbolTable
 70
     0
  0
ENDTAB
  0
TABLE
  2
UCS
  5
7
330
0
100
AcDbSymbolTable
 70
     0
  0
ENDTAB
  0
TABLE
  2
APPID
  5
9
330
0
100
AcDbSymbolTable
 70
     1
  0
APPID
  5
12
330
9
100
AcDbSymbolTableRecord
100
AcDbRegAppTableRecord
  2
ACAD
 70
     0
  0
ENDTAB
  0
TABLE
  2
DIMSTYLE
  5
A
330
0
100
AcDbSymbolTable
 70
     9
100
AcDbDimStyleTable
  0
DIMSTYLE
105
27
330
A
100
AcDbSymbolTableRecord
100
AcDbDimStyleTableRecord
  2
Standard
 70
     0
340
11
  0
DIMSTYLE
105
3E
330
A
100
AcDbSymbolTableRecord
100
AcDbDimStyleTableRecord
  2
OdaDimStyle0
 70
     0
340
11
  0
DIMSTYLE
105
3F
330
A
100
AcDbSymbolTableRecord
100
AcDbDimStyleTableRecord
  2
OdaDimStyle1
 70
     0
340
11
  0
DIMSTYLE
105
40
330
A
100
AcDbSymbolTableRecord
100
AcDbDimStyleTableRecord
  2
OdaDimStyle2
 70
     0
340
11
342
41
  0
DIMSTYLE
105
47
330
A
100
AcDbSymbolTableRecord
100
AcDbDimStyleTableRecord
  2
OdaDimStyle3
 70
     0
340
11
342
48
  0
DIMSTYLE
105
4B
330
A
100
AcDbSymbolTableRecord
100
AcDbDimStyleTableRecord
  2
OdaDimStyle4
 70
     0
340
11
342
4C
  0
DIMSTYLE
105
50
330
A
100
AcDbSymbolTableRecord
100
AcDbDimStyleTableRecord
  2
OdaDimStyle5
 70
     0
340
11
  0
DIMSTYLE
105
51
330
A
100
AcDbSymbolTableRecord
100
AcDbDimStyleTableRecord
  2
OdaDimStyle6
 70
     0
340
11
342
52
  0
DIMSTYLE
105
5A
330
A
100
AcDbSymbolTableRecord
100
AcDbDimStyleTableRecord
  2
OdaDimStyle7
 70
     0
340
11
342
5B
  0
ENDTAB
  0
TABLE
  2
BLOCK_RECORD
  5
1
330
0
100
AcDbSymbolTable
 70
     6
  0
BLOCK_RECORD
  5
1F
330
1
100
AcDbSymbolTableRecord
100
AcDbBlockTableRecord
  2
*Model_Space
340
22
  0
BLOCK_RECORD
  5
1B
330
1
100
AcDbSymbolTableRecord
100
AcDbBlockTableRecord
  2
*Paper_Space
340
1E
  0
BLOCK_RECORD
  5
23
330
1
100
AcDbSymbolTableRecord
100
AcDbBlockTableRecord
  2
*Paper_Space0
340
26
  0
BLOCK_RECORD
  5
41
330
1
100
AcDbSymbolTableRecord
100
AcDbBlockTableRecord
  2
_CLOSEDBLANK
340
0
  0
BLOCK_RECORD
  5
48
330
1
100
AcDbSymbolTableRecord
100
AcDbBlockTableRecord
  2
_NONE
340
0
  0
BLOCK_RECORD
  5
4C
330
1
100
AcDbSymbolTableRecord
100
AcDbBlockTableRecord
  2
_OBLIQUE
340
0
  0
BLOCK_RECORD
  5
52
330
1
100
AcDbSymbolTableRecord
100
AcDbBlockTableRecord
  2
_DOT
340
0
  0
BLOCK_RECORD
  5
5B
330
1
100
AcDbSymbolTableRecord
100
AcDbBlockTableRecord
  2
_DOTBLANK
340
0
  0
ENDTAB
  0
ENDSEC
  0
SECTION
  2
BLOCKS
  0
BLOCK
  5
20
330
1F
100
AcDbEntity
  8
0
100
AcDbBlockBegin
  2
*Model_Space
 70
     0
 10
0.0
 20
0.0
 30
0.0
  3
*Model_Space
  1

  0
ENDBLK
  5
21
330
1F
100
AcDbEntity
  8
0
100
AcDbBlockEnd
  0
BLOCK
  5
1C
330
1B
100
AcDbEntity
 67
     1
  8
0
100
AcDbBlockBegin
  2
*Paper_Space
 70
     0
 10
0.0
 20
0.0
 30
0.0
  3
*Paper_Space
  1

  0
ENDBLK
  5
1D
330
1B
100
AcDbEntity
 67
     1
  8
0
100
AcDbBlockEnd
  0
BLOCK
  5
24
330
23
100
AcDbEntity
  8
0
100
AcDbBlockBegin
  2
*Paper_Space0
 70
     0
 10
0.0
 20
0.0
 30
0.0
  3
*Paper_Space0
  1

  0
ENDBLK
  5
25
330
23
100
AcDbEntity
  8
0
100
AcDbBlockEnd
  0
BLOCK
  5
42
330
41
100
AcDbEntity
  8
0
100
AcDbBlockBegin
  2
_CLOSEDBLANK
 70
     0
 10
0.0
 20
0.0
 30
0.0
  3
_CLOSEDBLANK
  1

  0
LINE
  5
44
330
41
100
AcDbEntity
  8
0
  6
ByBlock
 62
     0
370
    -2
100
AcDbLine
 10
-1.0
 20
0.166667
 30
0.0
 11
0.0
 21
0.0
 31
0.0
  0
LINE
  5
45
330
41
100
AcDbEntity
  8
0
  6
ByBlock
 62
     0
370
    -2
100
AcDbLine
 10
0.0
 20
0.0
 30
0.0
 11
-1.0
 21
-0.166667
 31
0.0
  0
LINE
  5
46
330
41
100
AcDbEntity
  8
0
  6
ByBlock
 62
     0
370
    -2
100
AcDbLine
 10
-1.0
 20
0.166667
 30
0.0
 11
-1.0
 21
-0.166667
 31
0.0
  0
ENDBLK
  5
43
330
41
100
AcDbEntity
  8
0
100
AcDbBlockEnd
  0
BLOCK
  5
49
330
48
100
AcDbEntity
  8
0
100
AcDbBlockBegin
  2
_NONE
 70
     0
 10
0.0
 20
0.0
 30
0.0
  3
_NONE
  1

  0
ENDBLK
  5
4A
330
48
100
AcDbEntity
  8
0
100
AcDbBlockEnd
  0
BLOCK
  5
4D
330
4C
100
AcDbEntity
  8
0
100
AcDbBlockBegin
  2
_OBLIQUE
 70
     0
 10
0.0
 20
0.0
 30
0.0
  3
_OBLIQUE
  1

  0
LINE
  5
4F
330
4C
100
AcDbEntity
  8
0
  6
ByBlock
 62
     0
370
    -2
100
AcDbLine
 10
-0.5
 20
-0.5
 30
0.0
 11
0.5
 21
0.5
 31
0.0
  0
ENDBLK
  5
4E
330
4C
100
AcDbEntity
  8
0
100
AcDbBlockEnd
  0
BLOCK
  5
53
330
52
100
AcDbEntity
  8
0
100
AcDbBlockBegin
  2
_DOT
 70
     0
 10
0.0
 20
0.0
 30
0.0
  3
_DOT
  1

  0
POLYLINE
  5
55
330
52
100
AcDbEntity
  8
0
  6
ByBlock
 62
     0
100
AcDb2dPolyline
 66
     1
 10
0.0
 20
0.0
 30
0.0
 70
     1
 40
0.5
 41
0.5
  0
VERTEX
  5
57
330
55
100
AcDbEntity
  8
0
  6
ByBlock
 62
     0
100
AcDbVertex
100
AcDb2dVertex
 10
-0.25
 20
0.0
 30
0.0
 42
1.0
  0
VERTEX
  5
58
330
55
100
AcDbEntity
  8
0
  6
ByBlock
 62
     0
100
AcDbVertex
100
AcDb2dVertex
 10
0.25
 20
0.0
 30
0.0
 42
1.0
  0
SEQEND
  5
59
330
55
100
AcDbEntity
  8
0
  6
ByBlock
 62
     0
  0
LINE
  5
56
330
52
100
AcDbEntity
  8
0
  6
ByBlock
 62
     0
370
    -2
100
AcDbLine
 10
-0.5
 20
0.0
 30
0.0
 11
-1.0
 21
0.0
 31
0.0
  0
ENDBLK
  5
54
330
52
100
AcDbEntity
  8
0
100
AcDbBlockEnd
  0
BLOCK
  5
5C
330
5B
100
AcDbEntity
  8
0
100
AcDbBlockBegin
  2
_DOTBLANK
 70
     0
 10
0.0
 20
0.0
 30
0.0
  3
_DOTBLANK
  1

  0
CIRCLE
  5
5E
330
5B
100
AcDbEntity
  8
0
  6
ByBlock
 62
     0
370
    -2
100
AcDbCircle
 10
0.0
 20
0.0
 30
0.0
 40
0.5
  0
LINE
  5
5F
330
5B
100
AcDbEntity
  8
0
  6
ByBlock
 62
     0
370
    -2
100
AcDbLine
 10
-0.5
 20
0.0
 30
0.0
 11
-1.0
 21
0.0
 31
0.0
  0
ENDBLK
  5
5D
330
5B
100
AcDbEntity
  8
0
100
AcDbBlockEnd
  0
ENDSEC
  0
SECTION
  2
ENTITIES
  0
ARC
  5
6E
330
1F
100
AcDbEntity
  8
Layer1
 62
     7
370
    25
100
AcDbCircle
 10
27.87454868099218
 20
4.644893221583089
 30
0.0
 40
3.30000000000001
100
AcDbArc
 50
58.36672763024657
 51
121.655579402709
  0
ARC
  5
6F
330
1F
100
AcDbEntity
  8
Layer1
 62
     7
370
    25
100
AcDbCircle
 10
27.87454868099218
 20
4.644893221583089
 30
0.0
 40
3.300000000000004
100
AcDbArc
 50
346.3667276302463
 51
49.65557940270881
  0
ARC
  5
70
330
1F
100
AcDbEntity
  8
Layer1
 62
     7
370
    25
100
AcDbCircle
 10
27.87454868099218
 20
4.644893221583089
 30
0.0
 40
3.300000000000006
100
AcDbArc
 50
130.3667276302462
 51
193.6555794027091
  0
ARC
  5
71
330
1F
100
AcDbEntity
  8
Layer1
 62
     7
370
    25
100
AcDbCircle
 10
27.87454868099218
 20
4.644893221583089
 30
0.0
 40
3.250000000000009
100
AcDbArc
 50
193.6555794027088
 51
202.3667276302464
  0
LINE
  5
72
330
1F
100
AcDbEntity
  8
Layer1
 62
     7
370
    25
100
AcDbLine
 10
24.66783161177102
 20
3.865813226996067
 30
0.0
 11
24.71641823403194
 21
3.877617469338304
 31
0.0
  0
LINE
  5
73
330
1F
100
AcDbEntity
  8
Layer1
 62
     7
370
    25
100
AcDbLine
 10
24.82281701998352
 20
3.389132946213067
 30
0.0
 11
24.86905537848365
 21
3.408159617052007
 31
0.0
  0
ARC
  5
74
330
1F
100
AcDbEntity
  8
Layer1
 62
     7
370
    25
100
AcDbCircle
 10
27.87454868099217
 20
4.644893221583089
 30
0.0
 40
3.25
100
AcDbArc
 50
121.6555794027087
 51
130.3667276302461
  0
LINE
  5
75
330
1F
100
AcDbEntity
  8
Layer1
 62
     7
370
    25
100
AcDbLine
 10
26.14266950488345
 20
7.453913427875825
 30
0.0
 11
26.16891009846085
 21
7.411352515659281
 31
0.0
  0
LINE
  5
76
330
1F
100
AcDbEntity
  8
Layer1
 62
     7
370
    25
100
AcDbLine
 10
25.73721274267317
 20
7.159211237819314
 30
0.0
 11
25.76959662052649
 21
7.121115510300577
 31
0.0
  0
ARC
  5
77
330
1F
100
AcDbEntity
  8
Layer1
 62
     7
370
    25
100
AcDbCircle
 10
27.87454868099217
 20
4.644893221583089
 30
0.0
 40
3.250000000000003
100
AcDbArc
 50
49.6555794027086
 51
58.3667276302463
  0
LINE
  5
78
330
1F
100
AcDbEntity
  8
Layer1
 62
     7
370
    25
100
AcDbLine
 10
30.01090555496997
 20
7.160043178744253
 30
0.0
 11
29.97853651142486
 21
7.121934846059993
 31
0.0
  0
LINE
  5
79
330
1F
100
AcDbEntity
  8
Layer1
 62
     7
370
    25
100
AcDbLine
 10
29.60533408674303
 20
7.45458748951328
 30
0.0
 11
29.57911006544377
 21
7.41201636424163
 31
0.0
  0
ARC
  5
7A
330
1F
100
AcDbEntity
  8
Layer1
 62
     7
370
    25
100
AcDbCircle
 10
27.87454868099218
 20
4.644893221583089
 30
0.0
 40
3.249999999999996
100
AcDbArc
 50
337.6555794027089
 51
346.3667276302466
  0
LINE
  5
7B
330
1F
100
AcDbEntity
  8
Layer1
 62
     7
370
    25
100
AcDbLine
 10
30.92676901731866
 20
3.390321175618794
 30
0.0
 11
30.88052325464704
 21
3.40932984298189
 31
0.0
  0
LINE
  5
7C
330
1F
100
AcDbEntity
  8
Layer1
 62
     7
370
    25
100
AcDbLine
 10
31.0815688272975
 20
3.867061760923491
 30
0.0
 11
31.03297761295953
 21
3.878847086085017
 31
0.0
  0
ARC
  5
7D
330
1F
100
AcDbEntity
  8
Layer1
 62
     7
370
    25
100
AcDbCircle
 10
27.87454868099218
 20
4.644893221583089
 30
0.0
 40
4.200000000000003
100
AcDbArc
 50
193.0123034880469
 51
202.9930857929022
  0
ARC
  5
7E
330
1F
100
AcDbEntity
  8
Layer1
 62
     7
370
    25
100
AcDbCircle
 10
27.87454868099218
 20
4.644893221583089
 30
0.0
 40
4.300000000000004
100
AcDbArc
 50
193.012303488047
 51
202.993085792902
  0
LINE
  5
7F
330
1F
100
AcDbEntity
  8
Layer1
 62
     7
370
    25
100
AcDbLine
 10
23.6849652112622
 20
3.676704009618135
 30
0.0
 11
23.78239738497683
 21
3.699220037803371
 31
0.0
  0
LINE
  5
80
330
1F
100
AcDbEntity
  8
Layer1
 62
     7
370
    25
100
AcDbLine
 10
23.91617508746759
 20
2.965227036269113
 30
0.0
 11
24.00823028731698
 21
3.004289040578726
 31
0.0
  0
ARC
  5
81
330
1F
100
AcDbEntity
  8
Layer1
 62
     7
370
    25
100
AcDbCircle
 10
27.87454868099218
 20
4.644893221583089
 30
0.0
 40
4.199999999999999
100
AcDbArc
 50
121.0123034880469
 51
130.993085792902
  0
ARC
  5
82
330
1F
100
AcDbEntity
  8
Layer1
 62
     7
370
    25
100
AcDbCircle
 10
27.87454868099218
 20
4.644893221583089
 30
0.0
 40
4.299999999999999
100
AcDbArc
 50
121.0123034880469
 51
130.9930857929021
  0
LINE
  5
83
330
1F
100
AcDbEntity
  8
Layer1
 62
     7
370
    25
100
AcDbLine
 10
25.65909353044733
 20
8.330236960764587
 30
0.0
 11
25.71061574325069
 21
8.24453129241153
 31
0.0
  0
LINE
  5
84
330
1F
100
AcDbEntity
  8
Layer1
 62
     7
370
    25
100
AcDbLine
 10
25.05388649976457
 20
7.890484825496351
 30
0.0
 11
25.11948329467683
 21
7.815005950986752
 31
0.0
  0
ARC
  5
85
330
1F
100
AcDbEntity
  8
Layer1
 62
     7
370
    25
100
AcDbCircle
 10
27.87454868099218
 20
4.644893221583089
 30
0.0
 40
4.199999999999988
100
AcDbArc
 50
49.01230348804683
 51
58.99308579290213
  0
ARC
  5
86
330
1F
100
AcDbEntity
  8
Layer1
 62
     7
370
    25
100
AcDbCircle
 10
27.87454868099218
 20
4.644893221583089
 30
0.0
 40
4.300000000000007
100
AcDbArc
 50
49.01230348804699
 51
58.99308579290224
  0
LINE
  5
87
330
1F
100
AcDbEntity
  8
Layer1
 62
     7
370
    25
100
AcDbLine
 10
30.69490556713442
 20
7.890750124588841
 30
0.0
 11
30.62931587210786
 21
7.8152650803329
 31
0.0
  0
LINE
  5
88
330
1F
100
AcDbEntity
  8
Layer1
 62
     7
370
    25
100
AcDbLine
 10
30.08965717573669
 20
8.330445331716767
 30
0.0
 11
30.03814302469612
 21
8.244734817527622
 31
0.0
  0
CIRCLE
  5
89
330
1F
100
AcDbEntity
  8
Layer1
 62
     7
370
    25
100
AcDbCircle
 10
31.02283810434215
 20
14.49158844528703
 30
0.0
 40
3.000000000000012
  0
CIRCLE
  5
8A
330
1F
100
AcDbEntity
  8
Layer1
 62
     7
370
    25
100
AcDbCircle
 10
42.32138540694062
 20
6.357695403169096
 30
0.0
 40
4.299999999999992
  0
CIRCLE
  5
8B
330
1F
100
AcDbEntity
  8
Layer1
 62
     7
370
    25
100
AcDbCircle
 10
38.42749283924969
 20
11.71781388840493
 30
0.0
 40
0.1720000000000239
  0
CIRCLE
  5
8C
330
1F
100
AcDbEntity
  8
Layer1
 62
     7
370
    25
100
AcDbCircle
 10
48.62103698266422
 20
4.310609618672721
 30
0.0
 40
0.1719999999999244
  0
CIRCLE
  5
8D
330
1F
100
AcDbEntity
  8
Layer1
 62
     7
370
    25
100
AcDbCircle
 10
-31.02283810434214
 20
17.11658844528706
 30
0.0
 40
0.1720000000000255
210
0.0
220
0.0
230
-1.0
  0
CIRCLE
  5
8E
330
1F
100
AcDbEntity
  8
Layer1
 62
     7
370
    25
100
AcDbCircle
 10
36.0207462779931
 20
8.405730621789935
 30
0.0
 40
0.1719999999999244
  0
CIRCLE
  5
8F
330
1F
100
AcDbEntity
  8
Layer1
 62
     7
370
    25
100
AcDbCircle
 10
31.02283810434215
 20
14.49158844528703
 30
0.0
 40
2.049999999999997
  0
CIRCLE
  5
90
330
1F
100
AcDbEntity
  8
Layer1
 62
     7
370
    25
100
AcDbCircle
 10
-29.47990181707442
 20
12.36791883505288
 30
0.0
 40
0.1719999999998962
210
0.0
220
0.0
230
-1.0
  0
CIRCLE
  5
91
330
1F
100
AcDbEntity
  8
Layer1
 62
     7
370
    25
100
AcDbCircle
 10
-32.56577439160978
 20
12.36791883505268
 30
0.0
 40
0.172000000000007
210
0.0
220
0.0
230
-1.0
  0
CIRCLE
  5
92
330
1F
100
AcDbEntity
  8
Layer1
 62
     7
370
    25
100
AcDbCircle
 10
-33.51936145961695
 20
15.3027580555212
 30
0.0
 40
0.172000000000021
210
0.0
220
0.0
230
-1.0
  0
CIRCLE
  5
93
330
1F
100
AcDbEntity
  8
Layer1
 62
     7
370
    25
100
AcDbCircle
 10
-28.52631474906748
 20
15.30275805552134
 30
0.0
 40
0.171999999999896
210
0.0
220
0.0
230
-1.0
  0
CIRCLE
  5
94
330
1F
100
AcDbEntity
  8
Layer1
 62
     7
370
    25
100
AcDbCircle
 10
36.02044110726409
 20
4.311548837601357
 30
0.0
 40
0.1719999999999751
  0
CIRCLE
  5
95
330
1F
100
AcDbEntity
  8
Layer1
 62
     7
370
    25
100
AcDbCircle
 10
46.21508936874851
 20
11.71723341918409
 30
0.0
 40
0.1720000000000061
  0
CIRCLE
  5
96
330
1F
100
AcDbEntity
  8
Layer1
 62
     7
370
    25
100
AcDbCircle
 10
45.28352284120609
 20
-10.79836985652015
 30
0.0
 40
1.099999999999995
  0
CIRCLE
  5
97
330
1F
100
AcDbEntity
  8
Layer1
 62
     7
370
    25
100
AcDbCircle
 10
43.70834708424871
 20
-9.223194099562797
 30
0.0
 40
0.1719999999999898
  0
ARC
  5
98
330
1F
100
AcDbEntity
  8
Layer1
 62
     7
370
    25
100
AcDbCircle
 10
-47.03352284120611
 20
-9.048369856520146
 30
0.0
 40
0.25
210
0.0
220
0.0
230
-1.0
100
AcDbArc
 50
90.0
 51
180.0
  0
LINE
  5
99
330
1F
100
AcDbEntity
  8
Layer1
 62
     7
370
    25
100
AcDbLine
 10
47.28352284120611
 20
-9.048369856520146
 30
0.0
 11
47.28352284120611
 21
-12.54836985652017
 31
0.0
  0
ARC
  5
9A
330
1F
100
AcDbEntity
  8
Layer1
 62
     7
370
    25
100
AcDbCircle
 10
47.03352284120611
 20
-12.54836985652017
 30
0.0
 40
0.25
100
AcDbArc
 50
270.0
 51
0.0
  0
ARC
  5
9B
330
1F
100
AcDbEntity
  8
Layer1
 62
     7
370
    25
100
AcDbCircle
 10
-43.53352284120609
 20
-9.048369856520146
 30
0.0
 40
0.25
210
0.0
220
0.0
230
-1.0
100
AcDbArc
 50
0.0
 51
90.0
  0
LINE
  5
9C
330
1F
100
AcDbEntity
  8
Layer1
 62
     7
370
    25
100
AcDbLine
 10
43.28352284120609
 20
-12.54836985652017
 30
0.0
 11
43.28352284120609
 21
-9.048369856520146
 31
0.0
  0
ARC
  5
9D
330
1F
100
AcDbEntity
  8
Layer1
 62
     7
370
    25
100
AcDbCircle
 10
43.53352284120609
 20
-12.54836985652017
 30
0.0
 40
0.25
100
AcDbArc
 50
180.0
 51
270.0
  0
LINE
  5
9E
330
1F
100
AcDbEntity
  8
Layer1
 62
     7
370
    25
100
AcDbLine
 10
43.53352284120609
 20
-8.798369856520146
 30
0.0
 11
47.03352284120611
 21
-8.798369856520146
 31
0.0
  0
ARC
  5
9F
330
1F
100
AcDbEntity
  8
Layer1
 62
     7
370
    25
100
AcDbCircle
 10
41.29075688009672
 20
-7.309548226208271
 30
0.0
 40
0.25
100
AcDbArc
 50
270.0
 51
0.0
  0
LINE
  5
A0
330
1F
100
AcDbEntity
  8
Layer1
 62
     7
370
    25
100
AcDbLine
 10
41.54075688009672
 20
-3.809548226208271
 30
0.0
 11
41.54075688009672
 21
-7.309548226208271
 31
0.0
  0
CIRCLE
  5
A1
330
1F
100
AcDbEntity
  8
Layer1
 62
     7
370
    25
100
AcDbCircle
 10
43.70834708424871
 20
-12.37354561347755
 30
0.0
 40
0.17200000000003
  0
ARC
  5
A2
330
1F
100
AcDbEntity
  8
Layer1
 62
     7
370
    25
100
AcDbCircle
 10
27.87454868099218
 20
4.644893221583089
 30
0.0
 40
4.20000000000002
100
AcDbArc
 50
265.0123034880471
 51
274.9930857929023
  0
ARC
  5
A3
330
1F
100
AcDbEntity
  8
Layer1
 62
     7
370
    25
100
AcDbCircle
 10
27.87454868099218
 20
4.644893221583089
 30
0.0
 40
4.300000000000015
100
AcDbArc
 50
265.012303488047
 51
274.9930857929022
  0
LINE
  5
A4
330
1F
100
AcDbEntity
  8
Layer1
 62
     7
370
    25
100
AcDbLine
 10
27.50069884853919
 20
0.3611756418662608
 30
0.0
 11
27.50939303068927
 21
0.4607969809294374
 31
0.0
  0
LINE
  5
A5
330
1F
100
AcDbEntity
  8
Layer1
 62
     7
370
    25
100
AcDbLine
 10
28.24880144125154
 20
0.3612108253918862
 30
0.0
 11
28.24009788868737
 21
0.4608313462335261
 31
0.0
  0
CIRCLE
  5
A6
330
1F
100
AcDbEntity
  8
Layer1
 62
     7
370
    25
100
AcDbCircle
 10
38.42669389190884
 20
0.9991068212785095
 30
0.0
 40
0.1720000000000416
  0
CIRCLE
  5
A7
330
1F
100
AcDbEntity
  8
Layer1
 62
     7
370
    25
100
AcDbCircle
 10
46.21429042140765
 20
0.9985263520577305
 30
0.0
 40
0.1720000000000061
  0
ARC
  5
A8
330
1F
100
AcDbEntity
  8
Layer1
 62
     7
370
    25
100
AcDbCircle
 10
27.87454868099218
 20
4.644893221583089
 30
0.0
 40
3.299999999999999
100
AcDbArc
 50
274.3667276302464
 51
337.655579402709
  0
ARC
  5
A9
330
1F
100
AcDbEntity
  8
Layer1
 62
     7
370
    25
100
AcDbCircle
 10
27.87454868099218
 20
4.644893221583089
 30
0.0
 40
3.299999999999997
100
AcDbArc
 50
202.3667276302465
 51
265.6555794027087
  0
ARC
  5
AA
330
1F
100
AcDbEntity
  8
Layer1
 62
     7
370
    25
100
AcDbCircle
 10
27.87454868099218
 20
4.644893221583089
 30
0.0
 40
3.250000000000016
100
AcDbArc
 50
265.6555794027088
 51
274.3667276302463
  0
LINE
  5
AB
330
1F
100
AcDbEntity
  8
Layer1
 62
     7
370
    25
100
AcDbLine
 10
27.62456771601778
 20
1.354375098680464
 30
0.0
 11
27.62835530639618
 21
1.404231433875964
 31
0.0
  0
LINE
  5
AC
330
1F
100
AcDbEntity
  8
Layer1
 62
     7
370
    25
100
AcDbLine
 10
28.12581072826367
 20
1.354472673446281
 30
0.0
 11
28.12200372754744
 21
1.40432753023623
 31
0.0
  0
CIRCLE
  5
AD
330
1F
100
AcDbEntity
  8
Layer1
 62
     7
370
    25
100
AcDbCircle
 10
48.62134215339323
 20
8.404791402861242
 30
0.0
 40
0.1720000000000257
  0
CIRCLE
  5
AE
330
1F
100
AcDbEntity
  8
Layer1
 62
     7
370
    25
100
AcDbCircle
 10
42.32138540694062
 20
12.98269540316912
 30
0.0
 40
0.1719999999999094
  0
ARC
  5
AF
330
1F
100
AcDbEntity
  8
Layer1
 62
     7
370
    25
100
AcDbCircle
 10
27.87454868099218
 20
4.644893221583089
 30
0.0
 40
4.199999999999998
100
AcDbArc
 50
337.0123034880471
 51
346.993085792902
  0
ARC
  5
B0
330
1F
100
AcDbEntity
  8
Layer1
 62
     7
370
    25
100
AcDbCircle
 10
27.87454868099218
 20
4.644893221583089
 30
0.0
 40
4.299999999999996
100
AcDbArc
 50
337.0123034880469
 51
346.9930857929021
  0
LINE
  5
B1
330
1F
100
AcDbEntity
  8
Layer1
 62
     7
370
    25
100
AcDbLine
 10
31.83308024757775
 20
2.965599371077616
 30
0.0
 11
31.74102137393624
 21
3.004652716438187
 31
0.0
  0
LINE
  5
B2
330
1F
100
AcDbEntity
  8
Layer1
 62
     7
370
    25
100
AcDbLine
 10
32.06422320074052
 20
3.677098089041323
 30
0.0
 11
31.96678890958359
 21
3.6996049525888
 31
0.0
  0
CIRCLE
  5
B3
330
1F
100
AcDbEntity
  8
Layer1
 62
     7
370
    25
100
AcDbCircle
 10
30.7392339787657
 20
8.589408799536876
 30
0.0
 40
0.1719999999999927
  0
CIRCLE
  5
B4
330
1F
100
AcDbEntity
  8
Layer1
 62
     7
370
    25
100
AcDbCircle
 10
25.00832787749955
 20
8.588293189329939
 30
0.0
 40
0.1719999999999801
  0
CIRCLE
  5
B5
330
1F
100
AcDbEntity
  8
Layer1
 62
     7
370
    25
100
AcDbCircle
 10
23.23844150739817
 20
3.137532854932061
 30
0.0
 40
0.1719999999999974
  0
CIRCLE
  5
B6
330
1F
100
AcDbEntity
  8
Layer1
 62
     7
370
    25
100
AcDbCircle
 10
32.51124236558096
 20
3.139337950165071
 30
0.0
 40
0.1720000000000029
  0
ARC
  5
B7
330
1F
100
AcDbEntity
  8
Layer1
 62
     7
370
    25
100
AcDbCircle
 10
-37.79075688009671
 20
-3.809548226208271
 30
0.0
 40
0.25
210
0.0
220
0.0
230
-1.0
100
AcDbArc
 50
0.0
 51
90.0
  0
LINE
  5
B8
330
1F
100
AcDbEntity
  8
Layer1
 62
     7
370
    25
100
AcDbLine
 10
38.44075688009669
 20
-4.459548226208263
 30
0.0
 11
38.44075688009669
 21
-6.659548226208265
 31
0.0
  0
CIRCLE
  5
B9
330
1F
100
AcDbEntity
  8
Layer1
 62
     7
370
    25
100
AcDbCircle
 10
37.89964446165035
 20
-12.27342674356309
 30
0.0
 40
0.17200000000003
  0
CIRCLE
  5
BA
330
1F
100
AcDbEntity
  8
Layer1
 62
     7
370
    25
100
AcDbCircle
 10
37.89964446165035
 20
-9.123075229648329
 30
0.0
 40
0.1719999999999898
  0
CIRCLE
  5
BB
330
1F
100
AcDbEntity
  8
Layer1
 62
     7
370
    25
100
AcDbCircle
 10
37.96558112313933
 20
-3.984372469250907
 30
0.0
 40
0.1719999999999898
  0
ARC
  5
BC
330
1F
100
AcDbEntity
  8
Layer1
 62
     7
370
    25
100
AcDbCircle
 10
37.79075688009671
 20
-7.309548226208271
 30
0.0
 40
0.25
100
AcDbArc
 50
180.0
 51
270.0
  0
CIRCLE
  5
BD
330
1F
100
AcDbEntity
  8
Layer1
 62
     7
370
    25
100
AcDbCircle
 10
39.47482021860773
 20
-10.69825098660569
 30
0.0
 40
1.099999999999998
  0
LINE
  5
BE
330
1F
100
AcDbEntity
  8
Layer1
 62
     7
370
    25
100
AcDbLine
 10
37.79075688009671
 20
-3.559548226208271
 30
0.0
 11
41.29075688009672
 21
-3.559548226208271
 31
0.0
  0
LINE
  5
BF
330
1F
100
AcDbEntity
  8
Layer1
 62
     7
370
    25
100
AcDbLine
 10
41.29075688009672
 20
-7.559548226208271
 30
0.0
 11
37.79075688009671
 21
-7.559548226208271
 31
0.0
  0
LINE
  5
C0
330
1F
100
AcDbEntity
  8
Layer1
 62
     7
370
    25
100
AcDbLine
 10
46.44945950269509
 20
-4.559667096122716
 30
0.0
 11
44.24945950269505
 21
-4.559667096122716
 31
0.0
  0
LINE
  5
C1
330
1F
100
AcDbEntity
  8
Layer1
 62
     7
370
    25
100
AcDbLine
 10
46.44945950269509
 20
-6.759667096122719
 30
0.0
 11
44.24945950269505
 21
-6.759667096122719
 31
0.0
  0
CIRCLE
  5
C2
330
1F
100
AcDbEntity
  8
Layer1
 62
     7
370
    25
100
AcDbCircle
 10
30.44680865366903
 20
-3.9164991804248
 30
0.0
 40
0.1719999999999968
  0
CIRCLE
  5
C3
330
1F
100
AcDbEntity
  8
Layer1
 62
     7
370
    25
100
AcDbCircle
 10
32.21881704048429
 20
-9.366570029796598
 30
0.0
 40
0.1720000000000029
  0
CIRCLE
  5
C4
330
1F
100
AcDbEntity
  8
Layer1
 62
     7
370
    25
100
AcDbCircle
 10
22.9460161823015
 20
-9.368375125029608
 30
0.0
 40
0.1719999999999974
  0
CIRCLE
  5
C5
330
1F
100
AcDbEntity
  8
Layer1
 62
     7
370
    25
100
AcDbCircle
 10
27.5821233558955
 20
-7.86101475837858
 30
0.0
 40
5.249999999999997
  0
CIRCLE
  5
C6
330
1F
100
AcDbEntity
  8
Layer1
 62
     7
370
     9
100
AcDbCircle
 10
27.5821233558955
 20
-7.86101475837858
 30
0.0
 40
0.125
  0
CIRCLE
  5
C7
330
1F
100
AcDbEntity
  8
Layer1
 62
     7
370
    25
100
AcDbCircle
 10
24.71590255240287
 20
-3.917614790631738
 30
0.0
 40
0.1719999999999801
  0
CIRCLE
  5
C8
330
1F
100
AcDbEntity
  8
Layer1
 62
     7
370
    25
100
AcDbCircle
 10
27.58307235061984
 20
-12.7360146660103
 30
0.0
 40
0.1719999999999935
  0
LINE
  5
C9
330
1F
100
AcDbEntity
  8
Layer1
 62
     7
370
    25
100
AcDbLine
 10
43.34945950269507
 20
-7.409667096122725
 30
0.0
 11
43.34945950269507
 21
-3.909667096122725
 31
0.0
  0
LINE
  5
CA
330
1F
100
AcDbEntity
  8
Layer1
 62
     7
370
    25
100
AcDbLine
 10
37.72482021860773
 20
-8.698250986605693
 30
0.0
 11
41.22482021860775
 21
-8.698250986605693
 31
0.0
  0
ARC
  5
CB
330
1F
100
AcDbEntity
  8
Layer1
 62
     7
370
    25
100
AcDbCircle
 10
-37.72482021860773
 20
-8.948250986605693
 30
0.0
 40
0.25
210
0.0
220
0.0
230
-1.0
100
AcDbArc
 50
0.0
 51
90.0
  0
LINE
  5
CC
330
1F
100
AcDbEntity
  8
Layer1
 62
     7
370
    25
100
AcDbLine
 10
37.47482021860773
 20
-12.44825098660571
 30
0.0
 11
37.47482021860773
 21
-8.948250986605693
 31
0.0
  0
ARC
  5
CD
330
1F
100
AcDbEntity
  8
Layer1
 62
     7
370
    25
100
AcDbCircle
 10
37.72482021860773
 20
-12.44825098660571
 30
0.0
 40
0.25
100
AcDbArc
 50
180.0
 51
270.0
  0
CIRCLE
  5
CE
330
1F
100
AcDbEntity
  8
Layer1
 62
     7
370
    25
100
AcDbCircle
 10
41.04999597556512
 20
-9.123075229648329
 30
0.0
 40
0.1719999999999898
  0
LINE
  5
CF
330
1F
100
AcDbEntity
  8
Layer1
 62
     7
370
    25
100
AcDbLine
 10
40.64075688009673
 20
-4.459548226208263
 30
0.0
 11
40.64075688009673
 21
-6.659548226208265
 31
0.0
  0
CIRCLE
  5
D0
330
1F
100
AcDbEntity
  8
Layer1
 62
     7
370
    25
100
AcDbCircle
 10
43.77428374573769
 20
-4.084491339165361
 30
0.0
 40
0.1719999999999898
  0
CIRCLE
  5
D1
330
1F
100
AcDbEntity
  8
Layer1
 62
     7
370
    25
100
AcDbCircle
 10
43.77428374573769
 20
-7.234842853080103
 30
0.0
 40
0.17200000000003
  0
CIRCLE
  5
D2
330
1F
100
AcDbEntity
  8
Layer1
 62
     7
370
    25
100
AcDbCircle
 10
46.92463525965246
 20
-4.084491339165361
 30
0.0
 40
0.1719999999999898
  0
LINE
  5
D3
330
1F
100
AcDbEntity
  8
Layer1
 62
     7
370
    25
100
AcDbLine
 10
47.09945950269508
 20
-7.659667096122725
 30
0.0
 11
43.59945950269507
 21
-7.659667096122725
 31
0.0
  0
LINE
  5
D4
330
1F
100
AcDbEntity
  8
Layer1
 62
     7
370
    25
100
AcDbLine
 10
43.59945950269507
 20
-3.659667096122725
 30
0.0
 11
47.09945950269508
 21
-3.659667096122725
 31
0.0
  0
ARC
  5
D5
330
1F
100
AcDbEntity
  8
Layer1
 62
     7
370
    25
100
AcDbCircle
 10
43.59945950269507
 20
-7.409667096122725
 30
0.0
 40
0.25
100
AcDbArc
 50
180.0
 51
270.0
  0
MTEXT
  5
D6
330
1F
100
AcDbEntity
  8
Layer1
 62
     7
370
    25
100
AcDbMText
 10
26.92206641275229
 20
-21.66161189126763
 30
0.0
 40
2.333333253860474
 41
20.825
 71
     1
 72
     1
  1
{\C7;\l\fPlotter|b0|i0|c00|p34;\H1.00x;1/8" sheet\P}
 73
     1
 44
1.0
  0
ARC
  5
F9
330
1F
100
AcDbEntity
  8
Layer1
 62
     7
370
    25
100
AcDbCircle
 10
-43.59945950269507
 20
-3.909667096122725
 30
0.0
 40
0.25
210
0.0
220
0.0
230
-1.0
100
AcDbArc
 50
0.0
 51
90.0
  0
ARC
  5
FA
330
1F
100
AcDbEntity
  8
Layer1
 62
     7
370
    25
100
AcDbCircle
 10
-41.29075688009672
 20
-3.809548226208271
 30
0.0
 40
0.25
210
0.0
220
0.0
230
-1.0
100
AcDbArc
 50
90.0
 51
180.0
  0
CIRCLE
  5
FB
330
1F
100
AcDbEntity
  8
Layer1
 62
     7
370
    25
100
AcDbCircle
 10
46.85869859816349
 20
-12.37354561347754
 30
0.0
 40
0.1719999999999898
  0
CIRCLE
  5
FC
330
1F
100
AcDbEntity
  8
Layer1
 62
     7
370
    25
100
AcDbCircle
 10
41.1159326370541
 20
-7.134723983165635
 30
0.0
 40
0.1719999999999898
  0
CIRCLE
  5
FD
330
1F
100
AcDbEntity
  8
Layer1
 62
     7
370
    25
100
AcDbCircle
 10
41.1159326370541
 20
-3.984372469250907
 30
0.0
 40
0.1719999999999898
  0
ARC
  5
FE
330
1F
100
AcDbEntity
  8
Layer1
 62
     7
370
    25
100
AcDbCircle
 10
-41.22482021860775
 20
-8.948250986605693
 30
0.0
 40
0.25
210
0.0
220
0.0
230
-1.0
100
AcDbArc
 50
90.0
 51
180.0
  0
CIRCLE
  5
FF
330
1F
100
AcDbEntity
  8
Layer1
 62
     7
370
    25
100
AcDbCircle
 10
42.3203978537167
 20
-0.2663551627064962
 30
0.0
 40
0.17200000000003
  0
LINE
  5
100
330
1F
100
AcDbEntity
  8
Layer1
 62
     7
370
    25
100
AcDbLine
 10
41.47482021860775
 20
-8.948250986605693
 30
0.0
 11
41.47482021860775
 21
-12.44825098660571
 31
0.0
  0
ARC
  5
101
330
1F
100
AcDbEntity
  8
Layer1
 62
     7
370
    25
100
AcDbCircle
 10
41.22482021860775
 20
-12.44825098660571
 30
0.0
 40
0.25
100
AcDbArc
 50
270.0
 51
0.0
  0
LINE
  5
102
330
1F
100
AcDbEntity
  8
Layer1
 62
     7
370
    25
100
AcDbLine
 10
46.44945950269509
 20
-4.559667096122716
 30
0.0
 11
46.44945950269509
 21
-6.759667096122719
 31
0.0
  0
LINE
  5
103
330
1F
100
AcDbEntity
  8
Layer1
 62
     7
370
    25
100
AcDbLine
 10
44.24945950269505
 20
-4.559667096122716
 30
0.0
 11
44.24945950269505
 21
-6.759667096122719
 31
0.0
  0
LINE
  5
104
330
1F
100
AcDbEntity
  8
Layer1
 62
     7
370
    25
100
AcDbLine
 10
47.03352284120611
 20
-12.79836985652017
 30
0.0
 11
43.53352284120609
 21
-12.79836985652017
 31
0.0
  0
CIRCLE
  5
105
330
1F
100
AcDbEntity
  8
Layer1
 62
     7
370
    25
100
AcDbCircle
 10
46.85869859816349
 20
-9.223194099562797
 30
0.0
 40
0.1719999999999898
  0
LINE
  5
106
330
1F
100
AcDbEntity
  8
Layer1
 62
     7
370
    25
100
AcDbLine
 10
40.64075688009673
 20
-4.459548226208263
 30
0.0
 11
38.44075688009669
 21
-4.459548226208263
 31
0.0
  0
CIRCLE
  5
107
330
1F
100
AcDbEntity
  8
Layer1
 62
     7
370
    25
100
AcDbCircle
 10
37.96558112313933
 20
-7.134723983165649
 30
0.0
 40
0.17200000000003
  0
LINE
  5
108
330
1F
100
AcDbEntity
  8
Layer1
 62
     7
370
    25
100
AcDbLine
 10
40.64075688009673
 20
-6.659548226208265
 30
0.0
 11
38.44075688009669
 21
-6.659548226208265
 31
0.0
  0
LINE
  5
109
330
1F
100
AcDbEntity
  8
Layer1
 62
     7
370
    25
100
AcDbLine
 10
41.22482021860775
 20
-12.69825098660571
 30
0.0
 11
37.72482021860773
 21
-12.69825098660571
 31
0.0
  0
LINE
  5
10A
330
1F
100
AcDbEntity
  8
Layer1
 62
     7
370
    25
100
AcDbLine
 10
37.54075688009671
 20
-7.309548226208271
 30
0.0
 11
37.54075688009671
 21
-3.809548226208271
 31
0.0
  0
LINE
  5
10B
330
1F
100
AcDbEntity
  8
Layer1
 62
     7
370
    25
100
AcDbLine
 10
-45.27759629803644
 20
10.03134108103107
 30
0.0
 11
-44.22759629803645
 21
10.03134108103107
 31
0.0
  0
LINE
  5
10C
330
1F
100
AcDbEntity
  8
Layer1
 62
     7
370
    25
100
AcDbLine
 10
-44.22759629803645
 20
10.03134108103107
 30
0.0
 11
-44.22759629803645
 21
8.981341081031069
 31
0.0
  0
LINE
  5
10D
330
1F
100
AcDbEntity
  8
Layer1
 62
     7
370
    25
100
AcDbLine
 10
-45.27759629803644
 20
10.03134108103107
 30
0.0
 11
-45.27759629803644
 21
8.981341081031069
 31
0.0
  0
LINE
  5
10E
330
1F
100
AcDbEntity
  8
Layer1
 62
     7
370
    25
100
AcDbLine
 10
-45.27759629803644
 20
8.981341081031069
 30
0.0
 11
-44.22759629803645
 21
8.981341081031069
 31
0.0
  0
LINE
  5
10F
330
1F
100
AcDbEntity
  8
Layer1
 62
     7
370
    25
100
AcDbLine
 10
-41.19359629803644
 20
10.03134108103105
 30
0.0
 11
-40.14359629803644
 21
10.03134108103105
 31
0.0
  0
LINE
  5
110
330
1F
100
AcDbEntity
  8
Layer1
 62
     7
370
    25
100
AcDbLine
 10
-40.14359629803644
 20
10.03134108103105
 30
0.0
 11
-40.14359629803644
 21
8.981341081031054
 31
0.0
  0
LINE
  5
111
330
1F
100
AcDbEntity
  8
Layer1
 62
     7
370
    25
100
AcDbLine
 10
-41.19359629803644
 20
10.03134108103105
 30
0.0
 11
-41.19359629803644
 21
8.981341081031054
 31
0.0
  0
LINE
  5
112
330
1F
100
AcDbEntity
  8
Layer1
 62
     7
370
    25
100
AcDbLine
 10
-41.19359629803644
 20
8.981341081031054
 30
0.0
 11
-40.14359629803644
 21
8.981341081031054
 31
0.0
  0
LINE
  5
113
330
1F
100
AcDbEntity
  8
Layer1
 62
     7
370
    25
100
AcDbLine
 10
-33.02559629803643
 20
10.03134108103105
 30
0.0
 11
-31.97559629803644
 21
10.03134108103105
 31
0.0
  0
LINE
  5
114
330
1F
100
AcDbEntity
  8
Layer1
 62
     7
370
    25
100
AcDbLine
 10
-31.97559629803644
 20
10.03134108103105
 30
0.0
 11
-31.97559629803644
 21
8.981341081031054
 31
0.0
  0
LINE
  5
115
330
1F
100
AcDbEntity
  8
Layer1
 62
     7
370
    25
100
AcDbLine
 10
-33.02559629803643
 20
10.03134108103105
 30
0.0
 11
-33.02559629803643
 21
8.981341081031054
 31
0.0
  0
LINE
  5
116
330
1F
100
AcDbEntity
  8
Layer1
 62
     7
370
    25
100
AcDbLine
 10
-33.02559629803643
 20
8.981341081031054
 30
0.0
 11
-31.97559629803644
 21
8.981341081031054
 31
0.0
  0
LINE
  5
117
330
1F
100
AcDbEntity
  8
Layer1
 62
     7
370
    25
100
AcDbLine
 10
-36.05959629803644
 20
10.03134108103107
 30
0.0
 11
-36.05959629803644
 21
8.981341081031069
 31
0.0
  0
LINE
  5
118
330
1F
100
AcDbEntity
  8
Layer1
 62
     7
370
    25
100
AcDbLine
 10
-37.10959629803644
 20
10.03134108103107
 30
0.0
 11
-37.10959629803644
 21
8.981341081031069
 31
0.0
  0
LINE
  5
119
330
1F
100
AcDbEntity
  8
Layer1
 62
     7
370
    25
100
AcDbLine
 10
-37.10959629803644
 20
8.981341081031069
 30
0.0
 11
-36.05959629803644
 21
8.981341081031069
 31
0.0
  0
LINE
  5
11A
330
1F
100
AcDbEntity
  8
Layer1
 62
     7
370
    25
100
AcDbLine
 10
-37.10959629803644
 20
10.03134108103107
 30
0.0
 11
-36.05959629803644
 21
10.03134108103107
 31
0.0
  0
LINE
  5
11B
330
1F
100
AcDbEntity
  8
Layer1
 62
     7
370
    25
100
AcDbLine
 10
-21.11217646133778
 20
11.96460308641473
 30
0.0
 11
-20.21217646133778
 21
11.96460308641473
 31
0.0
  0
CIRCLE
  5
11C
330
1F
100
AcDbEntity
  8
Layer1
 62
     7
370
    25
100
AcDbCircle
 10
-9.484104739564742
 20
6.391289826029869
 30
0.0
 40
0.2500000000000221
  0
LINE
  5
11D
330
1F
100
AcDbEntity
  8
Layer1
 62
     7
370
    25
100
AcDbLine
 10
-21.11217646133778
 20
13.36460308641471
 30
0.0
 11
-21.11217646133778
 21
17.28960308641472
 31
0.0
  0
LINE
  5
11E
330
1F
100
AcDbEntity
  8
Layer1
 62
     7
370
    25
100
AcDbLine
 10
-11.72246262070487
 20
3.451004825739183
 30
0.0
 11
-7.722462620704881
 21
2.451004825739197
 31
0.0
  0
LINE
  5
11F
330
1F
100
AcDbEntity
  8
Layer1
 62
     7
370
    25
100
AcDbLine
 10
-11.72246262070487
 20
3.451004825739183
 30
0.0
 11
-12.66363909129311
 21
1.686298943386284
 31
0.0
  0
LINE
  5
120
330
1F
100
AcDbEntity
  8
Layer1
 62
     7
370
    25
100
AcDbLine
 10
-20.2292794237861
 20
5.363956298198936
 30
0.0
 11
-21.1292794237861
 21
5.363956298198936
 31
0.0
  0
LINE
  5
121
330
1F
100
AcDbEntity
  8
Layer1
 62
     7
370
    25
100
AcDbLine
 10
-34.04259629803643
 20
18.78134108103112
 30
0.0
 11
-34.04259629803643
 21
18.90634108103112
 31
0.0
  0
LINE
  5
122
330
1F
100
AcDbEntity
  8
Layer1
 62
     7
370
    25
100
AcDbLine
 10
-46.29459629803642
 20
18.90634108103112
 30
0.0
 11
-43.21059629803645
 21
18.90634108103112
 31
0.0
  0
LINE
  5
123
330
1F
100
AcDbEntity
  8
Layer1
 62
     7
370
    25
100
AcDbLine
 10
-42.21059629803642
 20
18.90634108103112
 30
0.0
 11
-39.12659629803646
 21
18.90634108103112
 31
0.0
  0
LINE
  5
124
330
1F
100
AcDbEntity
  8
Layer1
 62
     7
370
    25
100
AcDbLine
 10
-51.00376379803646
 20
18.78134108103112
 30
0.0
 11
-50.37859629803643
 21
18.78134108103112
 31
0.0
  0
LINE
  5
125
330
1F
100
AcDbEntity
  8
Layer1
 62
     7
370
    25
100
AcDbLine
 10
-30.33342879803645
 20
18.78134108103112
 30
0.0
 11
-30.33342879803644
 21
2.031341081031051
 31
0.0
  0
LINE
  5
126
330
1F
100
AcDbEntity
  8
Layer1
 62
     7
370
    25
100
AcDbLine
 10
-47.29459629803645
 20
18.78134108103112
 30
0.0
 11
-47.29459629803645
 21
18.90634108103112
 31
0.0
  0
LINE
  5
127
330
1F
100
AcDbEntity
  8
Layer1
 62
     7
370
    25
100
AcDbLine
 10
-43.21059629803645
 20
18.78134108103112
 30
0.0
 11
-42.21059629803642
 21
18.78134108103112
 31
0.0
  0
CIRCLE
  5
128
330
1F
100
AcDbEntity
  8
Layer1
 62
     7
370
    25
100
AcDbCircle
 10
41.04999597556512
 20
-12.27342674356308
 30
0.0
 40
0.1719999999999898
  0
ARC
  5
129
330
1F
100
AcDbEntity
  8
Layer1
 62
     7
370
    25
100
AcDbCircle
 10
47.09945950269508
 20
-7.409667096122725
 30
0.0
 40
0.25
100
AcDbArc
 50
270.0
 51
0.0
  0
LINE
  5
12A
330
1F
100
AcDbEntity
  8
Layer1
 62
     7
370
    25
100
AcDbLine
 10
47.34945950269508
 20
-3.909667096122725
 30
0.0
 11
47.34945950269508
 21
-7.409667096122725
 31
0.0
  0
ARC
  5
12B
330
1F
100
AcDbEntity
  8
Layer1
 62
     7
370
    25
100
AcDbCircle
 10
-47.09945950269508
 20
-3.909667096122725
 30
0.0
 40
0.25
210
0.0
220
0.0
230
-1.0
100
AcDbArc
 50
90.0
 51
180.0
  0
CIRCLE
  5
12C
330
1F
100
AcDbEntity
  8
Layer1
 62
     7
370
    25
100
AcDbCircle
 10
46.92463525965246
 20
-7.234842853080089
 30
0.0
 40
0.1719999999999898
  0
LINE
  5
12D
330
1F
100
AcDbEntity
  8
Layer1
 62
     7
370
    25
100
AcDbLine
 10
-42.21059629803642
 20
18.78134108103112
 30
0.0
 11
-42.21059629803642
 21
18.90634108103112
 31
0.0
  0
LINE
  5
12E
330
1F
100
AcDbEntity
  8
Layer1
 62
     7
370
    25
100
AcDbLine
 10
-43.21059629803645
 20
18.78134108103112
 30
0.0
 11
-43.21059629803645
 21
18.90634108103112
 31
0.0
  0
LINE
  5
12F
330
1F
100
AcDbEntity
  8
Layer1
 62
     7
370
    25
100
AcDbLine
 10
-39.12659629803646
 20
18.78134108103112
 30
0.0
 11
-38.12659629803643
 21
18.78134108103112
 31
0.0
  0
LINE
  5
130
330
1F
100
AcDbEntity
  8
Layer1
 62
     7
370
    25
100
AcDbLine
 10
-38.12659629803643
 20
18.78134108103112
 30
0.0
 11
-38.12659629803643
 21
18.90634108103112
 31
0.0
  0
ARC
  5
131
330
1F
100
AcDbEntity
  8
Layer1
 62
     7
370
    25
100
AcDbCircle
 10
-3.430818108497313
 20
6.391289826029876
 30
0.0
 40
4.300000000000002
100
AcDbArc
 50
152.2822523103906
 51
207.7177476896096
  0
LINE
  5
132
330
1F
100
AcDbEntity
  8
Layer1
 62
     7
370
    25
100
AcDbLine
 10
-11.23739137063217
 20
7.391289826029841
 30
0.0
 11
-11.72246262070485
 21
9.331574826320498
 31
0.0
  0
LINE
  5
133
330
1F
100
AcDbEntity
  8
Layer1
 62
     7
370
    25
100
AcDbLine
 10
-5.179465432473499
 20
2.980288272791135
 30
0.0
 11
-4.694394182400821
 21
4.920573273081828
 31
0.0
  0
LINE
  5
134
330
1F
100
AcDbEntity
  8
Layer1
 62
     7
370
    25
100
AcDbLine
 10
-4.694394182400821
 20
6.920573273081821
 30
0.0
 11
-4.694394182400821
 21
4.920573273081828
 31
0.0
  0
LINE
  5
135
330
1F
100
AcDbEntity
  8
Layer1
 62
     7
370
    25
100
AcDbLine
 10
-11.23739137063217
 20
5.391289826029876
 30
0.0
 11
-7.237391370632174
 21
4.391289826029869
 31
0.0
  0
LINE
  5
136
330
1F
100
AcDbEntity
  8
Layer1
 62
     7
370
    25
100
AcDbLine
 10
-11.72246262070485
 20
3.451004825739183
 30
0.0
 11
-11.23739137063217
 21
5.391289826029876
 31
0.0
  0
LINE
  5
137
330
1F
100
AcDbEntity
  8
Layer1
 62
     7
370
    25
100
AcDbLine
 10
-17.70372536437382
 20
2.958582920972781
 30
0.0
 11
-13.70372536437382
 21
2.958582920972781
 31
0.0
  0
LINE
  5
138
330
1F
100
AcDbEntity
  8
Layer1
 62
     7
370
    25
100
AcDbLine
 10
-11.23739137063217
 20
7.391289826029869
 30
0.0
 11
-7.237391370632174
 21
8.391289826029869
 31
0.0
  0
LINE
  5
139
330
1F
100
AcDbEntity
  8
Layer1
 62
     7
370
    25
100
AcDbLine
 10
-21.1292794237861
 20
5.363956298198936
 30
0.0
 11
-21.1292794237861
 21
6.363956298198936
 31
0.0
  0
LINE
  5
13A
330
1F
100
AcDbEntity
  8
Layer1
 62
     7
370
    25
100
AcDbLine
 10
-11.23739137063217
 20
7.391289826029869
 30
0.0
 11
-11.23739137063217
 21
5.391289826029876
 31
0.0
  0
LINE
  5
13B
330
1F
100
AcDbEntity
  8
Layer1
 62
     7
370
    25
100
AcDbLine
 10
-7.237391370632174
 20
4.391289826029869
 30
0.0
 11
-7.722462620704853
 21
2.451004825739197
 31
0.0
  0
LINE
  5
13C
330
1F
100
AcDbEntity
  8
Layer1
 62
     7
370
    25
100
AcDbLine
 10
-21.1292794237861
 20
6.363956298198936
 30
0.0
 11
-20.2292794237861
 21
6.363956298198936
 31
0.0
  0
ELLIPSE
  5
13D
330
1F
100
AcDbEntity
  8
Layer1
 62
     7
370
    25
100
AcDbEllipse
 10
-40.66859629803645
 20
15.73134108103113
 30
0.0
 11
2.3
 21
0.0
 31
0.0
210
0.0
220
0.0
230
-1.0
 40
0.8913043478260869
 41
0.0
 42
6.283185307179586
  0
LINE
  5
13E
330
1F
100
AcDbEntity
  8
Layer1
 62
     7
370
    25
100
AcDbLine
 10
-20.21217646133778
 20
17.28960308641472
 30
0.0
 11
-20.21217646133778
 21
13.36460308641471
 31
0.0
  0
LINE
  5
13F
330
1F
100
AcDbEntity
  8
Layer1
 62
     7
370
    25
100
AcDbLine
 10
-21.11217646133778
 20
17.28960308641472
 30
0.0
 11
-20.21217646133778
 21
17.28960308641472
 31
0.0
  0
LINE
  5
140
330
1F
100
AcDbEntity
  8
Layer1
 62
     7
370
    25
100
AcDbLine
 10
-11.72246262070485
 20
9.331574826320498
 30
0.0
 11
-7.722462620704839
 21
10.33157482632055
 31
0.0
  0
LINE
  5
141
330
1F
100
AcDbEntity
  8
Layer1
 62
     7
370
    25
100
AcDbLine
 10
-7.722462620704839
 20
10.33157482632055
 30
0.0
 11
-7.237391370632174
 21
8.391289826029869
 31
0.0
  0
CIRCLE
  5
142
330
1F
100
AcDbEntity
  8
Layer1
 62
     7
370
    25
100
AcDbCircle
 10
-2.941107551333396
 20
5.920573273081821
 30
0.0
 40
0.2500000000000221
  0
LINE
  5
143
330
1F
100
AcDbEntity
  8
Layer1
 62
     7
370
    25
100
AcDbLine
 10
-38.12659629803643
 20
18.90634108103112
 30
0.0
 11
-35.04259629803646
 21
18.90634108103112
 31
0.0
  0
LINE
  5
144
330
1F
100
AcDbEntity
  8
Layer1
 62
     7
370
    25
100
AcDbLine
 10
-34.04259629803643
 20
18.90634108103112
 30
0.0
 11
-30.95859629803645
 21
18.90634108103112
 31
0.0
  0
LINE
  5
145
330
1F
100
AcDbEntity
  8
Layer1
 62
     7
370
    25
100
AcDbLine
 10
-49.36159629803645
 20
10.03134108103107
 30
0.0
 11
-48.31159629803645
 21
10.03134108103107
 31
0.0
  0
LINE
  5
146
330
1F
100
AcDbEntity
  8
Layer1
 62
     7
370
    25
100
AcDbLine
 10
-48.31159629803645
 20
10.03134108103107
 30
0.0
 11
-48.31159629803645
 21
8.981341081031069
 31
0.0
  0
LINE
  5
147
330
1F
100
AcDbEntity
  8
Layer1
 62
     7
370
    25
100
AcDbLine
 10
-49.36159629803645
 20
10.03134108103107
 30
0.0
 11
-49.36159629803645
 21
8.981341081031069
 31
0.0
  0
LINE
  5
148
330
1F
100
AcDbEntity
  8
Layer1
 62
     7
370
    25
100
AcDbLine
 10
-49.36159629803645
 20
8.981341081031069
 30
0.0
 11
-48.31159629803645
 21
8.981341081031069
 31
0.0
  0
LINE
  5
149
330
1F
100
AcDbEntity
  8
Layer1
 62
     7
370
    25
100
AcDbLine
 10
-50.37859629803643
 20
18.90634108103112
 30
0.0
 11
-47.29459629803645
 21
18.90634108103112
 31
0.0
  0
LINE
  5
14A
330
1F
100
AcDbEntity
  8
Layer1
 62
     7
370
    25
100
AcDbLine
 10
-50.37859629803643
 20
18.78134108103112
 30
0.0
 11
-50.37859629803643
 21
18.90634108103112
 31
0.0
  0
LINE
  5
14B
330
1F
100
AcDbEntity
  8
Layer1
 62
     7
370
    25
100
AcDbLine
 10
-51.00376379803646
 20
18.78134108103112
 30
0.0
 11
-51.00376379803643
 21
18.78134108103112
 31
0.0
  0
LINE
  5
14C
330
1F
100
AcDbEntity
  8
Layer1
 62
     7
370
    25
100
AcDbLine
 10
-30.95859629803645
 20
18.78134108103112
 30
0.0
 11
-30.33342879803645
 21
18.78134108103112
 31
0.0
  0
LINE
  5
14D
330
1F
100
AcDbEntity
  8
Layer1
 62
     7
370
    25
100
AcDbLine
 10
-20.21217646133778
 20
11.96460308641473
 30
0.0
 11
-20.21217646133778
 21
7.789603086414694
 31
0.0
  0
LINE
  5
14E
330
1F
100
AcDbEntity
  8
Layer1
 62
     7
370
    25
100
AcDbLine
 10
-21.11217646133778
 20
7.789603086414694
 30
0.0
 11
-21.11217646133778
 21
11.96460308641473
 31
0.0
  0
LINE
  5
14F
330
1F
100
AcDbEntity
  8
Layer1
 62
     7
370
    25
100
AcDbLine
 10
-20.21217646133778
 20
7.789603086414694
 30
0.0
 11
-21.11217646133778
 21
7.789603086414694
 31
0.0
  0
LINE
  5
150
330
1F
100
AcDbEntity
  8
Layer1
 62
     7
370
    25
100
AcDbLine
 10
-20.21217646133778
 20
13.36460308641471
 30
0.0
 11
-21.11217646133778
 21
13.36460308641471
 31
0.0
  0
LINE
  5
151
330
1F
100
AcDbEntity
  8
Layer1
 62
     7
370
    25
100
AcDbLine
 10
-23.77476379803643
 20
5.230379645656591
 30
0.0
 11
-24.67476379803644
 21
5.230379645656591
 31
0.0
  0
LINE
  5
152
330
1F
100
AcDbEntity
  8
Layer1
 62
     7
370
    25
100
AcDbLine
 10
-4.694394182400821
 20
6.920573273081793
 30
0.0
 11
-5.179465432473499
 21
8.86085827337245
 31
0.0
  0
LINE
  5
153
330
1F
100
AcDbEntity
  8
Layer1
 62
     7
370
    25
100
AcDbLine
 10
-39.12659629803646
 20
18.78134108103112
 30
0.0
 11
-39.12659629803646
 21
18.90634108103112
 31
0.0
  0
LINE
  5
154
330
1F
100
AcDbEntity
  8
Layer1
 62
     7
370
    25
100
AcDbLine
 10
-35.04259629803646
 20
18.78134108103112
 30
0.0
 11
-34.04259629803643
 21
18.78134108103112
 31
0.0
  0
LINE
  5
155
330
1F
100
AcDbEntity
  8
Layer1
 62
     7
370
    25
100
AcDbLine
 10
-5.179465432473528
 20
2.980288272791135
 30
0.0
 11
-1.179465432473535
 21
1.980288272791149
 31
0.0
  0
LINE
  5
156
330
1F
100
AcDbEntity
  8
Layer1
 62
     7
370
    25
100
AcDbLine
 10
-5.179465432473499
 20
8.86085827337245
 30
0.0
 11
-1.179465432473492
 21
9.860858273372507
 31
0.0
  0
LINE
  5
157
330
1F
100
AcDbEntity
  8
Layer1
 62
     7
370
    25
100
AcDbLine
 10
-35.04259629803646
 20
18.78134108103112
 30
0.0
 11
-35.04259629803646
 21
18.90634108103112
 31
0.0
  0
LINE
  5
158
330
1F
100
AcDbEntity
  8
Layer1
 62
     7
370
    25
100
AcDbLine
 10
-1.179465432473492
 20
9.860858273372507
 30
0.0
 11
-0.6943941824008277
 21
7.920573273081821
 31
0.0
  0
ARC
  5
159
330
1F
100
AcDbEntity
  8
Layer1
 62
     7
370
    25
100
AcDbCircle
 10
3.112179079734034
 20
5.920573273081828
 30
0.0
 40
4.300000000000002
100
AcDbArc
 50
152.2822523103906
 51
207.7177476896096
  0
LINE
  5
15A
330
1F
100
AcDbEntity
  8
Layer1
 62
     7
370
    25
100
AcDbLine
 10
-0.6943941824008277
 20
3.920573273081821
 30
0.0
 11
-1.179465432473506
 21
1.980288272791149
 31
0.0
  0
LINE
  5
15B
330
1F
100
AcDbEntity
  8
Layer1
 62
     7
370
    25
100
AcDbLine
 10
-4.694394182400821
 20
6.920573273081821
 30
0.0
 11
-0.6943941824008277
 21
7.920573273081821
 31
0.0
  0
LINE
  5
15C
330
1F
100
AcDbEntity
  8
Layer1
 62
     7
370
    25
100
AcDbLine
 10
-51.00376379803643
 20
2.031341081031051
 30
0.0
 11
-51.00376379803646
 21
18.78134108103112
 31
0.0
  0
LINE
  5
15D
330
1F
100
AcDbEntity
  8
Layer1
 62
     7
370
    25
100
AcDbLine
 10
-47.29459629803645
 20
18.78134108103112
 30
0.0
 11
-46.29459629803642
 21
18.78134108103112
 31
0.0
  0
LINE
  5
15E
330
1F
100
AcDbEntity
  8
Layer1
 62
     7
370
    25
100
AcDbLine
 10
-46.29459629803642
 20
18.78134108103112
 30
0.0
 11
-46.29459629803642
 21
18.90634108103112
 31
0.0
  0
LINE
  5
15F
330
1F
100
AcDbEntity
  8
Layer1
 62
     7
370
    25
100
AcDbLine
 10
-4.694394182400821
 20
4.920573273081828
 30
0.0
 11
-0.6943941824008277
 21
3.920573273081821
 31
0.0
  0
LINE
  5
160
330
1F
100
AcDbEntity
  8
Layer1
 62
     7
370
    25
100
AcDbLine
 10
-20.2292794237861
 20
6.363956298198936
 30
0.0
 11
-20.2292794237861
 21
5.363956298198936
 31
0.0
  0
LINE
  5
161
330
1F
100
AcDbEntity
  8
Layer1
 62
     7
370
    25
100
AcDbLine
 10
-30.33342879803644
 20
2.031341081031051
 30
0.0
 11
-51.00376379803643
 21
2.031341081031051
 31
0.0
  0
CIRCLE
  5
162
330
1F
100
AcDbEntity
  8
Layer1
 62
     7
370
    25
100
AcDbCircle
 10
-6.514890565397792
 20
-10.00808217268811
 30
0.0
 40
3.299999999999988
  0
LINE
  5
163
330
1F
100
AcDbEntity
  8
Layer1
 62
     7
370
    25
100
AcDbLine
 10
-42.05276379803644
 20
-6.312998495118258
 30
0.0
 11
-46.35276379803643
 21
-6.312998495118258
 31
0.0
  0
LINE
  5
164
330
1F
100
AcDbEntity
  8
Layer1
 62
     7
370
    25
100
AcDbLine
 10
-46.35276379803643
 20
-6.312998495118258
 30
0.0
 11
-46.35276379803643
 21
-4.312998495118258
 31
0.0
  0
LINE
  5
165
330
1F
100
AcDbEntity
  8
Layer1
 62
     7
370
    25
100
AcDbLine
 10
-42.05276379803644
 20
-4.312998495118258
 30
0.0
 11
-42.05276379803644
 21
-6.312998495118258
 31
0.0
  0
LINE
  5
166
330
1F
100
AcDbEntity
  8
Layer1
 62
     7
370
    25
100
AcDbLine
 10
-46.35276379803643
 20
-4.312998495118258
 30
0.0
 11
-42.05276379803644
 21
-4.312998495118258
 31
0.0
  0
LINE
  5
167
330
1F
100
AcDbEntity
  8
Layer1
 62
     7
370
    25
100
AcDbLine
 10
-51.00376379803643
 20
-17.31299849511826
 30
0.0
 11
-24.04976379803644
 21
-17.31299849511826
 31
0.0
  0
LINE
  5
168
330
1F
100
AcDbEntity
  8
Layer1
 62
     7
370
    25
100
AcDbLine
 10
-27.37016379803644
 20
-9.31299849511828
 30
0.0
 11
-26.32016379803645
 21
-9.31299849511828
 31
0.0
  0
LINE
  5
169
330
1F
100
AcDbEntity
  8
Layer1
 62
     7
370
    25
100
AcDbLine
 10
-26.32016379803645
 20
-9.31299849511828
 30
0.0
 11
-26.32016379803645
 21
-10.36299849511828
 31
0.0
  0
LINE
  5
16A
330
1F
100
AcDbEntity
  8
Layer1
 62
     7
370
    25
100
AcDbLine
 10
-27.37016379803644
 20
-9.31299849511828
 30
0.0
 11
-27.37016379803644
 21
-10.36299849511828
 31
0.0
  0
LINE
  5
16B
330
1F
100
AcDbEntity
  8
Layer1
 62
     7
370
    25
100
AcDbLine
 10
-27.37016379803644
 20
-10.36299849511828
 30
0.0
 11
-26.32016379803645
 21
-10.36299849511828
 31
0.0
  0
LINE
  5
16C
330
1F
100
AcDbEntity
  8
Layer1
 62
     7
370
    25
100
AcDbLine
 10
-32.71096379803645
 20
-9.31299849511828
 30
0.0
 11
-31.66096379803645
 21
-9.31299849511828
 31
0.0
  0
LINE
  5
16D
330
1F
100
AcDbEntity
  8
Layer1
 62
     7
370
    25
100
AcDbLine
 10
-31.66096379803645
 20
-9.31299849511828
 30
0.0
 11
-31.66096379803645
 21
-10.36299849511828
 31
0.0
  0
LINE
  5
16E
330
1F
100
AcDbEntity
  8
Layer1
 62
     7
370
    25
100
AcDbLine
 10
-32.71096379803645
 20
-9.31299849511828
 30
0.0
 11
-32.71096379803645
 21
-10.36299849511828
 31
0.0
  0
LINE
  5
16F
330
1F
100
AcDbEntity
  8
Layer1
 62
     7
370
    25
100
AcDbLine
 10
-32.71096379803645
 20
-10.36299849511828
 30
0.0
 11
-31.66096379803645
 21
-10.36299849511828
 31
0.0
  0
LINE
  5
170
330
1F
100
AcDbEntity
  8
Layer1
 62
     7
370
    25
100
AcDbLine
 10
-43.39256379803645
 20
-9.312998495118265
 30
0.0
 11
-42.34256379803645
 21
-9.312998495118265
 31
0.0
  0
LINE
  5
171
330
1F
100
AcDbEntity
  8
Layer1
 62
     7
370
    25
100
AcDbLine
 10
-42.34256379803645
 20
-9.312998495118265
 30
0.0
 11
-42.34256379803645
 21
-10.36299849511826
 31
0.0
  0
LINE
  5
172
330
1F
100
AcDbEntity
  8
Layer1
 62
     7
370
    25
100
AcDbLine
 10
-43.39256379803645
 20
-9.312998495118265
 30
0.0
 11
-43.39256379803645
 21
-10.36299849511826
 31
0.0
  0
LINE
  5
173
330
1F
100
AcDbEntity
  8
Layer1
 62
     7
370
    25
100
AcDbLine
 10
-43.39256379803645
 20
-10.36299849511826
 30
0.0
 11
-42.34256379803645
 21
-10.36299849511826
 31
0.0
  0
LINE
  5
174
330
1F
100
AcDbEntity
  8
Layer1
 62
     7
370
    25
100
AcDbLine
 10
-48.73336379803646
 20
-9.312998495118258
 30
0.0
 11
-47.68336379803647
 21
-9.312998495118258
 31
0.0
  0
LINE
  5
175
330
1F
100
AcDbEntity
  8
Layer1
 62
     7
370
    25
100
AcDbLine
 10
-47.68336379803647
 20
-9.312998495118258
 30
0.0
 11
-47.68336379803647
 21
-10.36299849511825
 31
0.0
  0
LINE
  5
176
330
1F
100
AcDbEntity
  8
Layer1
 62
     7
370
    25
100
AcDbLine
 10
-48.73336379803646
 20
-9.312998495118258
 30
0.0
 11
-48.73336379803646
 21
-10.36299849511825
 31
0.0
  0
LINE
  5
177
330
1F
100
AcDbEntity
  8
Layer1
 62
     7
370
    25
100
AcDbLine
 10
-48.73336379803646
 20
-10.36299849511825
 30
0.0
 11
-47.68336379803647
 21
-10.36299849511825
 31
0.0
  0
LINE
  5
178
330
1F
100
AcDbEntity
  8
Layer1
 62
     7
370
    25
100
AcDbLine
 10
-38.05176379803645
 20
-9.312998495118258
 30
0.0
 11
-37.00176379803645
 21
-9.312998495118258
 31
0.0
  0
LINE
  5
179
330
1F
100
AcDbEntity
  8
Layer1
 62
     7
370
    25
100
AcDbLine
 10
-37.00176379803645
 20
-9.312998495118258
 30
0.0
 11
-37.00176379803645
 21
-10.36299849511825
 31
0.0
  0
LINE
  5
17A
330
1F
100
AcDbEntity
  8
Layer1
 62
     7
370
    25
100
AcDbLine
 10
-38.05176379803645
 20
-9.312998495118258
 30
0.0
 11
-38.05176379803645
 21
-10.36299849511825
 31
0.0
  0
LINE
  5
17B
330
1F
100
AcDbEntity
  8
Layer1
 62
     7
370
    25
100
AcDbLine
 10
-38.05176379803645
 20
-10.36299849511825
 30
0.0
 11
-37.00176379803645
 21
-10.36299849511825
 31
0.0
  0
LINE
  5
17C
330
1F
100
AcDbEntity
  8
Layer1
 62
     7
370
    25
100
AcDbLine
 10
-13.70372536437382
 20
-9.857417079027229
 30
0.0
 11
-17.70372536437382
 21
-9.857417079027229
 31
0.0
  0
LINE
  5
17D
330
1F
100
AcDbEntity
  8
Layer1
 62
     7
370
    25
100
AcDbLine
 10
-28.70076379803645
 20
-6.312998495118258
 30
0.0
 11
-33.00076379803644
 21
-6.312998495118258
 31
0.0
  0
LINE
  5
17E
330
1F
100
AcDbEntity
  8
Layer1
 62
     7
370
    25
100
AcDbLine
 10
-29.76556379803644
 20
-0.562998495118272
 30
0.0
 11
-34.60636379803643
 21
-0.562998495118272
 31
0.0
  0
LINE
  5
17F
330
1F
100
AcDbEntity
  8
Layer1
 62
     7
370
    25
100
AcDbLine
 10
-39.94716379803643
 20
-0.562998495118272
 30
0.0
 11
-35.10636379803644
 21
-0.562998495118272
 31
0.0
  0
LINE
  5
180
330
1F
100
AcDbEntity
  8
Layer1
 62
     7
370
    25
100
AcDbLine
 10
-50.62876379803642
 20
-0.562998495118272
 30
0.0
 11
-45.78796379803643
 21
-0.562998495118272
 31
0.0
  0
LINE
  5
181
330
1F
100
AcDbEntity
  8
Layer1
 62
     7
370
    25
100
AcDbLine
 10
-45.28796379803643
 20
-0.562998495118272
 30
0.0
 11
-40.44716379803643
 21
-0.562998495118272
 31
0.0
  0
LINE
  5
182
330
1F
100
AcDbEntity
  8
Layer1
 62
     7
370
    25
100
AcDbLine
 10
-24.42476379803644
 20
-0.562998495118272
 30
0.0
 11
-29.26556379803642
 21
-0.562998495118272
 31
0.0
  0
LINE
  5
183
330
1F
100
AcDbEntity
  8
Layer1
 62
     7
370
    25
100
AcDbLine
 10
-51.00376379803642
 20
-0.437998495118272
 30
0.0
 11
-50.62876379803642
 21
-0.437998495118272
 31
0.0
  0
LINE
  5
184
330
1F
100
AcDbEntity
  8
Layer1
 62
     7
370
    25
100
AcDbLine
 10
-24.42476379803644
 20
-0.437998495118272
 30
0.0
 11
-24.04976379803644
 21
-0.437998495118272
 31
0.0
  0
LINE
  5
185
330
1F
100
AcDbEntity
  8
Layer1
 62
     7
370
    25
100
AcDbLine
 10
-24.67476379803644
 20
18.73037964565668
 30
0.0
 11
-23.77476379803643
 21
18.73037964565668
 31
0.0
  0
LINE
  5
186
330
1F
100
AcDbEntity
  8
Layer1
 62
     7
370
    25
100
AcDbLine
 10
-24.67476379803644
 20
5.230379645656591
 30
0.0
 11
-24.67476379803644
 21
18.73037964565668
 31
0.0
  0
LINE
  5
187
330
1F
100
AcDbEntity
  8
Layer1
 62
     7
370
    25
100
AcDbLine
 10
-23.77476379803643
 20
18.73037964565668
 30
0.0
 11
-23.77476379803643
 21
5.230379645656591
 31
0.0
  0
LINE
  5
188
330
1F
100
AcDbEntity
  8
Layer1
 62
     7
370
    25
100
AcDbLine
 10
-5.179465432473528
 20
2.980288272791135
 30
0.0
 11
-6.12064190306176
 21
1.215582390438236
 31
0.0
  0
LINE
  5
189
330
1F
100
AcDbEntity
  8
Layer1
 62
     7
370
    25
100
AcDbLine
 10
-30.95859629803645
 20
18.78134108103112
 30
0.0
 11
-30.95859629803645
 21
18.90634108103112
 31
0.0
  0
MTEXT
  5
18A
330
1F
100
AcDbEntity
  8
Layer1
 62
     7
370
    25
100
AcDbMText
 10
-28.10171881150741
 20
37.786598647327
 30
0.0
 40
2.666666746139526
 41
62.01131200182346
 71
     1
 72
     1
  1
{\C7;\l\fPlotter|b1|i0|c00|p34;\H1.00x;GEK PyroCoil Cut Pieces\P\l\fPlotter|b0|i1|c01|p34;\H0.58x; \P   download .dxf file for dimensions\P}
 73
     1
 44
1.0
  0
MTEXT
  5
18B
330
1F
100
AcDbEntity
  8
Layer1
 62
     7
370
    25
100
AcDbMText
 10
-60.06290023799165
 20
-40.86739774360997
 30
0.0
 40
1.5
 41
139.6030933626938
 71
     1
 72
     1
  1
{\C7;\l\fPlotter|b0|i0|c00|p34;\H1.00x;       Created by Jim Mason 4/5/09.  This drawing and included ideas are released under the \PCreative Commons Attribution-NonCommerical-Share Alike License.   See allpowerlabs.org for more info.\P}
 73
     1
 44
1.0
  0
ARC
  5
18C
330
1F
100
AcDbEntity
  8
Layer1
 62
     7
370
    25
100
AcDbCircle
 10
1.23809921058664
 20
-1.575746203507627
 30
0.0
 40
4.299999999999994
100
AcDbArc
 50
124.2097653745372
 51
179.6452607537559
  0
LINE
  5
18D
330
1F
100
AcDbEntity
  8
Layer1
 62
     7
370
    25
100
AcDbLine
 10
-13.70372536437382
 20
2.958582920972781
 30
0.0
 11
-13.70372536437382
 21
-9.857417079027229
 31
0.0
  0
LINE
  5
18E
330
1F
100
AcDbEntity
  8
Layer1
 62
     7
370
    25
100
AcDbLine
 10
-17.70372536437382
 20
-9.857417079027229
 30
0.0
 11
-17.70372536437382
 21
2.958582920972781
 31
0.0
  0
ARC
  5
18F
330
1F
100
AcDbEntity
  8
Layer1
 62
     7
370
    25
100
AcDbCircle
 10
-5.304897977644707
 20
-1.10502965055958
 30
0.0
 40
4.299999999999994
100
AcDbArc
 50
124.2097653745372
 51
179.6452607537559
  0
LINE
  5
190
330
1F
100
AcDbEntity
  8
Layer1
 62
     7
370
    25
100
AcDbLine
 10
-12.66363909129311
 20
1.686298943386284
 30
0.0
 11
-9.60481556188136
 21
-1.078406938966687
 31
0.0
  0
LINE
  5
191
330
1F
100
AcDbEntity
  8
Layer1
 62
     7
370
    25
100
AcDbLine
 10
-6.12064190306176
 20
1.215582390438236
 30
0.0
 11
-3.061818373650013
 21
-1.549123491914735
 31
0.0
  0
CIRCLE
  5
192
330
1F
100
AcDbEntity
  8
Layer1
 62
     7
370
    25
100
AcDbCircle
 10
42.32138540694062
 20
6.357695403169096
 30
0.0
 40
7.000000000000026
  0
CIRCLE
  5
193
330
1F
100
AcDbEntity
  8
Layer1
 62
     7
370
    25
100
AcDbCircle
 10
27.87454868099218
 20
4.644893221583089
 30
0.0
 40
5.250000000000003
  0
CIRCLE
  5
194
330
1F
100
AcDbEntity
  8
Layer1
 62
     7
370
    25
100
AcDbCircle
 10
27.87549767571652
 20
-0.2301066860486358
 30
0.0
 40
0.1719999999999935
  0
LINE
  5
195
330
1F
100
AcDbEntity
  8
Layer1
 62
     7
370
    25
100
AcDbLine
 10
-50.62876379803642
 20
-0.437998495118272
 30
0.0
 11
-50.62876379803642
 21
-0.562998495118272
 31
0.0
  0
LINE
  5
196
330
1F
100
AcDbEntity
  8
Layer1
 62
     7
370
    25
100
AcDbLine
 10
-24.04976379803644
 20
-17.31299849511826
 30
0.0
 11
-24.04976379803644
 21
-0.437998495118272
 31
0.0
  0
LINE
  5
197
330
1F
100
AcDbEntity
  8
Layer1
 62
     7
370
    25
100
AcDbLine
 10
-24.42476379803644
 20
-0.437998495118272
 30
0.0
 11
-24.42476379803644
 21
-0.562998495118272
 31
0.0
  0
LINE
  5
198
330
1F
100
AcDbEntity
  8
Layer1
 62
     7
370
    25
100
AcDbLine
 10
-40.44716379803643
 20
-0.437998495118272
 30
0.0
 11
-39.94716379803643
 21
-0.437998495118272
 31
0.0
  0
LINE
  5
199
330
1F
100
AcDbEntity
  8
Layer1
 62
     7
370
    25
100
AcDbLine
 10
-40.44716379803643
 20
-0.437998495118272
 30
0.0
 11
-40.44716379803643
 21
-0.562998495118272
 31
0.0
  0
LINE
  5
19A
330
1F
100
AcDbEntity
  8
Layer1
 62
     7
370
    25
100
AcDbLine
 10
-39.94716379803643
 20
-0.437998495118272
 30
0.0
 11
-39.94716379803643
 21
-0.562998495118272
 31
0.0
  0
LINE
  5
19B
330
1F
100
AcDbEntity
  8
Layer1
 62
     7
370
    25
100
AcDbLine
 10
-45.78796379803643
 20
-0.437998495118272
 30
0.0
 11
-45.28796379803643
 21
-0.437998495118272
 31
0.0
  0
LINE
  5
19C
330
1F
100
AcDbEntity
  8
Layer1
 62
     7
370
    25
100
AcDbLine
 10
-45.78796379803643
 20
-0.437998495118272
 30
0.0
 11
-45.78796379803643
 21
-0.562998495118272
 31
0.0
  0
LINE
  5
19D
330
1F
100
AcDbEntity
  8
Layer1
 62
     7
370
    25
100
AcDbLine
 10
-45.28796379803643
 20
-0.437998495118272
 30
0.0
 11
-45.28796379803643
 21
-0.562998495118272
 31
0.0
  0
LINE
  5
19E
330
1F
100
AcDbEntity
  8
Layer1
 62
     7
370
    25
100
AcDbLine
 10
-29.76556379803644
 20
-0.437998495118272
 30
0.0
 11
-29.26556379803642
 21
-0.437998495118272
 31
0.0
  0
LINE
  5
19F
330
1F
100
AcDbEntity
  8
Layer1
 62
     7
370
    25
100
AcDbLine
 10
-29.76556379803644
 20
-0.437998495118272
 30
0.0
 11
-29.76556379803644
 21
-0.562998495118272
 31
0.0
  0
LINE
  5
1A0
330
1F
100
AcDbEntity
  8
Layer1
 62
     7
370
    25
100
AcDbLine
 10
-29.26556379803642
 20
-0.437998495118272
 30
0.0
 11
-29.26556379803642
 21
-0.562998495118272
 31
0.0
  0
LINE
  5
1A1
330
1F
100
AcDbEntity
  8
Layer1
 62
     7
370
    25
100
AcDbLine
 10
-35.10636379803644
 20
-0.437998495118272
 30
0.0
 11
-34.60636379803643
 21
-0.437998495118272
 31
0.0
  0
LINE
  5
1A2
330
1F
100
AcDbEntity
  8
Layer1
 62
     7
370
    25
100
AcDbLine
 10
-35.10636379803644
 20
-0.437998495118272
 30
0.0
 11
-35.10636379803644
 21
-0.562998495118272
 31
0.0
  0
LINE
  5
1A3
330
1F
100
AcDbEntity
  8
Layer1
 62
     7
370
    25
100
AcDbLine
 10
-34.60636379803643
 20
-0.437998495118272
 30
0.0
 11
-34.60636379803643
 21
-0.562998495118272
 31
0.0
  0
LINE
  5
1A4
330
1F
100
AcDbEntity
  8
Layer1
 62
     7
370
    25
100
AcDbLine
 10
-51.00376379803642
 20
-0.437998495118272
 30
0.0
 11
-51.00376379803643
 21
-17.31299849511826
 31
0.0
  0
CIRCLE
  5
1A5
330
1F
100
AcDbEntity
  8
Layer1
 62
     7
370
    25
100
AcDbCircle
 10
-6.514890565397792
 20
-10.00808217268811
 30
0.0
 40
4.19999999999999
  0
MTEXT
  5
1A6
330
1F
100
AcDbEntity
  8
Layer1
 62
     7
370
    25
100
AcDbMText
 10
-37.68944544037192
 20
-22.43471326722061
 30
0.0
 40
2.333333253860474
 41
25.01240297463697
 71
     1
 72
     1
  1
{\C7;\l\fPlotter|b0|i0|c00|p34;\H1.00x;18awg sheet\P}
 73
     1
 44
1.0
  0
LINE
  5
1A7
330
1F
100
AcDbEntity
  8
Layer1
 62
     7
370
    25
100
AcDbLine
 10
-33.00076379803644
 20
-6.312998495118258
 30
0.0
 11
-33.00076379803644
 21
-4.312998495118258
 31
0.0
  0
LINE
  5
1A8
330
1F
100
AcDbEntity
  8
Layer1
 62
     7
370
    25
100
AcDbLine
 10
-28.70076379803645
 20
-4.312998495118258
 30
0.0
 11
-28.70076379803645
 21
-6.312998495118258
 31
0.0
  0
LINE
  5
1A9
330
1F
100
AcDbEntity
  8
Layer1
 62
     7
370
    25
100
AcDbLine
 10
-33.00076379803644
 20
-4.312998495118258
 30
0.0
 11
-28.70076379803645
 21
-4.312998495118258
 31
0.0
  0
ELLIPSE
  5
1AA
330
1F
100
AcDbEntity
  8
Layer1
 62
     7
370
    25
100
AcDbEllipse
 10
-37.52676379803644
 20
-3.612998495118269
 30
0.0
 11
2.2
 21
0.0
 31
0.0
210
0.0
220
0.0
230
-1.0
 40
0.9318181818181817
 41
0.0
 42
6.283185307179586
  0
ENDSEC
  0
SECTION
  2
OBJECTS
  0
DICTIONARY
  5
C
330
0
100
AcDbDictionary
281
     1
  3
ACAD_GROUP
350
D
  3
ACAD_LAYOUT
350
1A
  3
ACAD_MLEADERSTYLE
350
1AE
  3
ACAD_MLINESTYLE
350
17
  3
ACAD_PLOTSETTINGS
350
19
  3
ACAD_PLOTSTYLENAME
350
E
  3
ACAD_SCALELIST
350
D7
  3
ACAD_TABLESTYLE
350
1AD
  3
ACAD_VISUALSTYLE
350
2A
  3
AcDbVariableDictionary
350
1AB
  0
DICTIONARY
  5
D
102
{ACAD_REACTORS
330
C
102
}
330
C
100
AcDbDictionary
281
     1
  0
DICTIONARY
  5
1A
102
{ACAD_REACTORS
330
C
102
}
330
C
100
AcDbDictionary
281
     1
  3
Layout1
350
1E
  3
Layout2
350
26
  3
Model
350
22
  0
DICTIONARY
  5
1AE
102
{ACAD_REACTORS
330
C
102
}
330
C
100
AcDbDictionary
281
     1
  0
DICTIONARY
  5
17
102
{ACAD_REACTORS
330
C
102
}
330
C
100
AcDbDictionary
281
     1
  3
Standard
350
18
  0
DICTIONARY
  5
19
102
{ACAD_REACTORS
330
C
102
}
330
C
100
AcDbDictionary
281
     1
  0
ACDBDICTIONARYWDFLT
  5
E
102
{ACAD_REACTORS
330
C
102
}
330
C
100
AcDbDictionary
281
     1
  3
Normal
350
F
100
AcDbDictionaryWithDefault
340
F
  0
DICTIONARY
  5
D7
102
{ACAD_REACTORS
330
C
102
}
330
C
100
AcDbDictionary
281
     1
  3
A0
350
D8
  3
A1
350
D9
  3
A2
350
DA
  3
A3
350
DB
  3
A4
350
DC
  3
A5
350
DD
  3
A6
350
DE
  3
A7
350
DF
  3
A8
350
E0
  3
A9
350
E1
  3
B0
350
E2
  3
B1
350
E3
  3
B2
350
E4
  3
B3
350
E5
  3
B4
350
E6
  3
B5
350
E7
  3
B6
350
E8
  3
B7
350
E9
  3
B8
350
EA
  3
B9
350
EB
  3
C0
350
EC
  3
C1
350
ED
  3
C2
350
EE
  3
C3
350
EF
  3
C4
350
F0
  3
C5
350
F1
  3
C6
350
F2
  3
C7
350
F3
  3
C8
350
F4
  3
C9
350
F5
  3
D0
350
F6
  3
D1
350
F7
  3
D2
350
F8
  0
DICTIONARY
  5
1AD
102
{ACAD_REACTORS
330
C
102
}
330
C
100
AcDbDictionary
281
     1
  0
DICTIONARY
  5
2A
102
{ACAD_REACTORS
330
C
102
}
330
C
100
AcDbDictionary
281
     1
  3
2dWireframe
350
2F
  3
3D Hidden
350
31
  3
3dWireframe
350
30
  3
Basic
350
32
  3
Brighten
350
36
  3
ColorChange
350
3A
  3
Conceptual
350
34
  3
Dim
350
35
  3
Facepattern
350
39
  3
Flat
350
2B
  3
FlatWithEdges
350
2C
  3
Gouraud
350
2D
  3
GouraudWithEdges
350
2E
  3
Linepattern
350
38
  3
Realistic
350
33
  3
Thicken
350
37
  0
DICTIONARY
  5
1AB
102
{ACAD_REACTORS
330
C
102
}
330
C
100
AcDbDictionary
281
     1
  3
CANNOSCALE
350
1AC
  0
LAYOUT
  5
1E
102
{ACAD_REACTORS
330
1A
102
}
330
1A
100
AcDbPlotSettings
  1

  2
none_device
  4

  6

 40
0.0
 41
0.0
 42
0.0
 43
0.0
 44
0.0
 45
0.0
 46
0.0
 47
0.0
 48
0.0
 49
0.0
140
0.0
141
0.0
142
1.0
143
1.0
 70
   688
 72
     0
 73
     0
 74
     5
  7

 75
    16
 76
     0
 77
     2
 78
   300
147
1.0
148
0.0
149
0.0
100
AcDbLayout
  1
Layout1
 70
     1
 71
     1
 10
0.0
 20
0.0
 11
12.0
 21
9.0
 12
0.0
 22
0.0
 32
0.0
 14
1.000000000000000E+20
 24
1.000000000000000E+20
 34
1.000000000000000E+20
 15
-1.000000000000000E+20
 25
-1.000000000000000E+20
 35
-1.000000000000000E+20
146
0.0
 13
0.0
 23
0.0
 33
0.0
 16
1.0
 26
0.0
 36
0.0
 17
0.0
 27
1.0
 37
0.0
 76
     0
330
1B
  0
LAYOUT
  5
26
102
{ACAD_REACTORS
330
1A
102
}
330
1A
100
AcDbPlotSettings
  1

  2
none_device
  4

  6

 40
0.0
 41
0.0
 42
0.0
 43
0.0
 44
0.0
 45
0.0
 46
0.0
 47
0.0
 48
0.0
 49
0.0
140
0.0
141
0.0
142
1.0
143
1.0
 70
   688
 72
     0
 73
     0
 74
     5
  7

 75
    16
 76
     0
 77
     2
 78
   300
147
1.0
148
0.0
149
0.0
100
AcDbLayout
  1
Layout2
 70
     1
 71
     2
 10
0.0
 20
0.0
 11
0.0
 21
0.0
 12
0.0
 22
0.0
 32
0.0
 14
0.0
 24
0.0
 34
0.0
 15
0.0
 25
0.0
 35
0.0
146
0.0
 13
0.0
 23
0.0
 33
0.0
 16
1.0
 26
0.0
 36
0.0
 17
0.0
 27
1.0
 37
0.0
 76
     0
330
23
  0
LAYOUT
  5
22
102
{ACAD_REACTORS
330
1A
102
}
330
1A
100
AcDbPlotSettings
  1

  2
none_device
  4

  6

 40
0.0
 41
0.0
 42
0.0
 43
0.0
 44
0.0
 45
0.0
 46
0.0
 47
0.0
 48
0.0
 49
0.0
140
0.0
141
0.0
142
1.0
143
1.0
 70
  1712
 72
     0
 73
     0
 74
     0
  7

 75
     0
 76
     0
 77
     2
 78
   300
147
1.0
148
0.0
149
0.0
100
AcDbLayout
  1
Model
 70
     1
 71
     0
 10
0.0
 20
0.0
 11
12.0
 21
9.0
 12
0.0
 22
0.0
 32
0.0
 14
1.000000000000000E+20
 24
1.000000000000000E+20
 34
1.000000000000000E+20
 15
-1.000000000000000E+20
 25
-1.000000000000000E+20
 35
-1.000000000000000E+20
146
0.0
 13
0.0
 23
0.0
 33
0.0
 16
1.0
 26
0.0
 36
0.0
 17
0.0
 27
1.0
 37
0.0
 76
     0
330
1F
331
29
  0
MLINESTYLE
  5
18
102
{ACAD_REACTORS
330
17
102
}
330
17
100
AcDbMlineStyle
  2
Standard
 70
     0
  3

 62
   256
 51
90.0
 52
90.0
 71
     2
 49
0.5
 62
   256
  6
BYLAYER
 49
-0.5
 62
   256
  6
BYLAYER
  0
ACDBPLACEHOLDER
  5
F
102
{ACAD_REACTORS
330
E
102
}
330
E
  0
SCALE
  5
D8
102
{ACAD_REACTORS
330
D7
102
}
330
D7
100
AcDbScale
 70
     0
300
1:1
140
1.0
141
1.0
290
     1
  0
SCALE
  5
D9
102
{ACAD_REACTORS
330
D7
102
}
330
D7
100
AcDbScale
 70
     0
300
1:2
140
1.0
141
2.0
290
     0
  0
SCALE
  5
DA
102
{ACAD_REACTORS
330
D7
102
}
330
D7
100
AcDbScale
 70
     0
300
1:4
140
1.0
141
4.0
290
     0
  0
SCALE
  5
DB
102
{ACAD_REACTORS
330
D7
102
}
330
D7
100
AcDbScale
 70
     0
300
1:5
140
1.0
141
5.0
290
     0
  0
SCALE
  5
DC
102
{ACAD_REACTORS
330
D7
102
}
330
D7
100
AcDbScale
 70
     0
300
1:8
140
1.0
141
8.0
290
     0
  0
SCALE
  5
DD
102
{ACAD_REACTORS
330
D7
102
}
330
D7
100
AcDbScale
 70
     0
300
1:10
140
1.0
141
10.0
290
     0
  0
SCALE
  5
DE
102
{ACAD_REACTORS
330
D7
102
}
330
D7
100
AcDbScale
 70
     0
300
1:16
140
1.0
141
16.0
290
     0
  0
SCALE
  5
DF
102
{ACAD_REACTORS
330
D7
102
}
330
D7
100
AcDbScale
 70
     0
300
1:20
140
1.0
141
20.0
290
     0
  0
SCALE
  5
E0
102
{ACAD_REACTORS
330
D7
102
}
330
D7
100
AcDbScale
 70
     0
300
1:30
140
1.0
141
30.0
290
     0
  0
SCALE
  5
E1
102
{ACAD_REACTORS
330
D7
102
}
330
D7
100
AcDbScale
 70
     0
300
1:40
140
1.0
141
40.0
290
     0
  0
SCALE
  5
E2
102
{ACAD_REACTORS
330
D7
102
}
330
D7
100
AcDbScale
 70
     0
300
1:50
140
1.0
141
50.0
290
     0
  0
SCALE
  5
E3
102
{ACAD_REACTORS
330
D7
102
}
330
D7
100
AcDbScale
 70
     0
300
1:100
140
1.0
141
100.0
290
     0
  0
SCALE
  5
E4
102
{ACAD_REACTORS
330
D7
102
}
330
D7
100
AcDbScale
 70
     0
300
2:1
140
2.0
141
1.0
290
     0
  0
SCALE
  5
E5
102
{ACAD_REACTORS
330
D7
102
}
330
D7
100
AcDbScale
 70
     0
300
4:1
140
4.0
141
1.0
290
     0
  0
SCALE
  5
E6
102
{ACAD_REACTORS
330
D7
102
}
330
D7
100
AcDbScale
 70
     0
300
8:1
140
8.0
141
1.0
290
     0
  0
SCALE
  5
E7
102
{ACAD_REACTORS
330
D7
102
}
330
D7
100
AcDbScale
 70
     0
300
10:1
140
10.0
141
1.0
290
     0
  0
SCALE
  5
E8
102
{ACAD_REACTORS
330
D7
102
}
330
D7
100
AcDbScale
 70
     0
300
100:1
140
100.0
141
1.0
290
     0
  0
SCALE
  5
E9
102
{ACAD_REACTORS
330
D7
102
}
330
D7
100
AcDbScale
 70
     0
300
1/128" = 1'-0"
140
0.0078125
141
12.0
290
     0
  0
SCALE
  5
EA
102
{ACAD_REACTORS
330
D7
102
}
330
D7
100
AcDbScale
 70
     0
300
1/64" = 1'-0"
140
0.015625
141
12.0
290
     0
  0
SCALE
  5
EB
102
{ACAD_REACTORS
330
D7
102
}
330
D7
100
AcDbScale
 70
     0
300
1/32" = 1'-0"
140
0.03125
141
12.0
290
     0
  0
SCALE
  5
EC
102
{ACAD_REACTORS
330
D7
102
}
330
D7
100
AcDbScale
 70
     0
300
1/16" = 1'-0"
140
0.0625
141
12.0
290
     0
  0
SCALE
  5
ED
102
{ACAD_REACTORS
330
D7
102
}
330
D7
100
AcDbScale
 70
     0
300
3/32" = 1'-0"
140
0.09375
141
12.0
290
     0
  0
SCALE
  5
EE
102
{ACAD_REACTORS
330
D7
102
}
330
D7
100
AcDbScale
 70
     0
300
1/8" = 1'-0"
140
0.125
141
12.0
290
     0
  0
SCALE
  5
EF
102
{ACAD_REACTORS
330
D7
102
}
330
D7
100
AcDbScale
 70
     0
300
3/16" = 1'-0"
140
0.1875
141
12.0
290
     0
  0
SCALE
  5
F0
102
{ACAD_REACTORS
330
D7
102
}
330
D7
100
AcDbScale
 70
     0
300
1/4" = 1'-0"
140
0.25
141
12.0
290
     0
  0
SCALE
  5
F1
102
{ACAD_REACTORS
330
D7
102
}
330
D7
100
AcDbScale
 70
     0
300
3/8" = 1'-0"
140
0.375
141
12.0
290
     0
  0
SCALE
  5
F2
102
{ACAD_REACTORS
330
D7
102
}
330
D7
100
AcDbScale
 70
     0
300
1/2" = 1'-0"
140
0.5
141
12.0
290
     0
  0
SCALE
  5
F3
102
{ACAD_REACTORS
330
D7
102
}
330
D7
100
AcDbScale
 70
     0
300
3/4" = 1'-0"
140
0.75
141
12.0
290
     0
  0
SCALE
  5
F4
102
{ACAD_REACTORS
330
D7
102
}
330
D7
100
AcDbScale
 70
     0
300
1" = 1'-0"
140
1.0
141
12.0
290
     0
  0
SCALE
  5
F5
102
{ACAD_REACTORS
330
D7
102
}
330
D7
100
AcDbScale
 70
     0
300
1-1/2" = 1'-0"
140
1.5
141
12.0
290
     0
  0
SCALE
  5
F6
102
{ACAD_REACTORS
330
D7
102
}
330
D7
100
AcDbScale
 70
     0
300
3" = 1'-0"
140
3.0
141
12.0
290
     0
  0
SCALE
  5
F7
102
{ACAD_REACTORS
330
D7
102
}
330
D7
100
AcDbScale
 70
     0
300
6" = 1'-0"
140
6.0
141
12.0
290
     0
  0
SCALE
  5
F8
102
{ACAD_REACTORS
330
D7
102
}
330
D7
100
AcDbScale
 70
     0
300
1'-0" = 1'-0"
140
12.0
141
12.0
290
     0
  0
VISUALSTYLE
  5
2F
102
{ACAD_REACTORS
330
2A
102
}
330
2A
100
AcDbVisualStyle
  2
2dWireframe
 70
     4
 71
     0
 72
     2
 73
     0
 90
        0
 40
-0.6
 41
-30.0
 62
     5
 63
     7
421
 16777215
 74
     1
 91
        4
 64
     7
 65
   257
 75
     1
175
     1
 42
1.0
 92
        0
 66
   257
 43
1.0
 76
     1
 77
     6
 78
     2
 67
     7
 79
     5
170
     0
171
     0
290
     0
174
     0
 93
        1
 44
0.0
173
     0
291
     0
 45
0.0
1001
ACAD
1000
AcDbSavedByObjectVersion
1070
     0
  0
VISUALSTYLE
  5
31
102
{ACAD_REACTORS
330
2A
102
}
330
2A
100
AcDbVisualStyle
  2
3D Hidden
 70
     6
 71
     1
 72
     2
 73
     2
 90
        0
 40
-0.6
 41
-30.0
 62
     5
 63
     7
421
 16777215
 74
     2
 91
        2
 64
     7
 65
   257
 75
     2
175
     1
 42
40.0
 92
        0
 66
   257
 43
1.0
 76
     1
 77
     6
 78
     2
 67
     7
 79
     3
170
     0
171
     0
290
     0
174
     0
 93
        1
 44
0.0
173
     0
291
     0
 45
0.0
1001
ACAD
1000
AcDbSavedByObjectVersion
1070
     0
  0
VISUALSTYLE
  5
30
102
{ACAD_REACTORS
330
2A
102
}
330
2A
100
AcDbVisualStyle
  2
3dWireframe
 70
     5
 71
     0
 72
     2
 73
     0
 90
        0
 40
-0.6
 41
-30.0
 62
     5
 63
     7
421
 16777215
 74
     1
 91
        4
 64
     7
 65
   257
 75
     1
175
     1
 42
1.0
 92
        0
 66
   257
 43
1.0
 76
     1
 77
     6
 78
     2
 67
     7
 79
     5
170
     0
171
     0
290
     0
174
     0
 93
        1
 44
0.0
173
     0
291
     0
 45
0.0
1001
ACAD
1000
AcDbSavedByObjectVersion
1070
     0
  0
VISUALSTYLE
  5
32
102
{ACAD_REACTORS
330
2A
102
}
330
2A
100
AcDbVisualStyle
  2
Basic
 70
     7
 71
     1
 72
     0
 73
     1
 90
        0
 40
-0.6
 41
-30.0
 62
     5
 63
     7
421
 16777215
 74
     0
 91
        4
 64
     7
 65
   257
 75
     1
175
     1
 42
1.0
 92
        8
 66
     7
 43
1.0
 76
     1
 77
     6
 78
     2
 67
     7
 79
     5
170
     0
171
     0
290
     0
174
     0
 93
        1
 44
0.0
173
     0
291
     1
 45
0.0
1001
ACAD
1000
AcDbSavedByObjectVersion
1070
     0
  0
VISUALSTYLE
  5
36
102
{ACAD_REACTORS
330
2A
102
}
330
2A
100
AcDbVisualStyle
  2
Brighten
 70
    12
 71
     2
 72
     2
 73
     0
 90
        0
 40
-0.6
 41
-30.0
 62
     5
 63
     7
421
 16777215
 74
     1
 91
        4
 64
     7
 65
   257
 75
     1
175
     1
 42
1.0
 92
        8
 66
     7
 43
1.0
 76
     1
 77
     6
 78
     2
 67
     7
 79
     5
170
     0
171
     0
290
     0
174
     0
 93
        1
 44
50.0
173
     0
291
     1
 45
0.0
1001
ACAD
1000
AcDbSavedByObjectVersion
1070
     0
  0
VISUALSTYLE
  5
3A
102
{ACAD_REACTORS
330
2A
102
}
330
2A
100
AcDbVisualStyle
  2
ColorChange
 70
    16
 71
     2
 72
     2
 73
     3
 90
        0
 40
-0.6
 41
-30.0
 62
     5
 63
     8
421
  8421504
 74
     1
 91
        4
 64
     7
 65
   257
 75
     1
175
     1
 42
1.0
 92
        8
 66
     8
424
  8421504
 43
1.0
 76
     1
 77
     6
 78
     2
 67
     7
 79
     5
170
     0
171
     0
290
     0
174
     0
 93
        1
 44
0.0
173
     0
291
     1
 45
0.0
1001
ACAD
1000
AcDbSavedByObjectVersion
1070
     0
  0
VISUALSTYLE
  5
34
102
{ACAD_REACTORS
330
2A
102
}
330
2A
100
AcDbVisualStyle
  2
Conceptual
 70
     9
 71
     3
 72
     2
 73
     0
 90
        0
 40
-0.6
 41
-30.0
 62
     5
 63
     7
421
 16777215
 74
     2
 91
        2
 64
     7
 65
   257
 75
     1
175
     1
 42
40.0
 92
        8
 66
     7
 43
1.0
 76
     1
 77
     6
 78
     2
 67
     7
 79
     3
170
     0
171
     0
290
     0
174
     0
 93
        1
 44
0.0
173
     0
291
     0
 45
0.0
1001
ACAD
1000
AcDbSavedByObjectVersion
1070
     0
  0
VISUALSTYLE
  5
35
102
{ACAD_REACTORS
330
2A
102
}
330
2A
100
AcDbVisualStyle
  2
Dim
 70
    11
 71
     2
 72
     2
 73
     0
 90
        0
 40
-0.6
 41
-30.0
 62
     5
 63
     7
421
 16777215
 74
     1
 91
        4
 64
     7
 65
   257
 75
     1
175
     1
 42
1.0
 92
        8
 66
     7
 43
1.0
 76
     1
 77
     6
 78
     2
 67
     7
 79
     5
170
     0
171
     0
290
     0
174
     0
 93
        1
 44
-50.0
173
     0
291
     1
 45
0.0
1001
ACAD
1000
AcDbSavedByObjectVersion
1070
     0
  0
VISUALSTYLE
  5
39
102
{ACAD_REACTORS
330
2A
102
}
330
2A
100
AcDbVisualStyle
  2
Facepattern
 70
    15
 71
     2
 72
     2
 73
     0
 90
        0
 40
-0.6
 41
-30.0
 62
     5
 63
     7
421
 16777215
 74
     1
 91
        4
 64
     7
 65
   257
 75
     1
175
     1
 42
1.0
 92
        8
 66
     7
 43
1.0
 76
     1
 77
     6
 78
     2
 67
     7
 79
     5
170
     0
171
     0
290
     0
174
     0
 93
        1
 44
0.0
173
     0
291
     1
 45
0.0
1001
ACAD
1000
AcDbSavedByObjectVersion
1070
     0
  0
VISUALSTYLE
  5
2B
102
{ACAD_REACTORS
330
2A
102
}
330
2A
100
AcDbVisualStyle
  2
Flat
 70
     0
 71
     2
 72
     1
 73
     1
 90
        2
 40
-0.6
 41
30.0
 62
     5
 63
     7
421
 16777215
 74
     0
 91
        4
 64
     7
 65
   257
 75
     1
175
     1
 42
1.0
 92
        8
 66
     7
 43
1.0
 76
     1
 77
     6
 78
     2
 67
     7
 79
     5
170
     0
171
     0
290
     0
174
     0
 93
       13
 44
0.0
173
     0
291
     1
 45
0.0
1001
ACAD
1000
AcDbSavedByObjectVersion
1070
     0
  0
VISUALSTYLE
  5
2C
102
{ACAD_REACTORS
330
2A
102
}
330
2A
100
AcDbVisualStyle
  2
FlatWithEdges
 70
     1
 71
     2
 72
     1
 73
     1
 90
        2
 40
-0.6
 41
30.0
 62
     5
 63
     7
421
 16777215
 74
     1
 91
        4
 64
     7
 65
   257
 75
     1
175
     1
 42
1.0
 92
        0
 66
   257
 43
1.0
 76
     1
 77
     6
 78
     2
 67
     7
 79
     5
170
     0
171
     0
290
     0
174
     0
 93
       13
 44
0.0
173
     0
291
     1
 45
0.0
1001
ACAD
1000
AcDbSavedByObjectVersion
1070
     0
  0
VISUALSTYLE
  5
2D
102
{ACAD_REACTORS
330
2A
102
}
330
2A
100
AcDbVisualStyle
  2
Gouraud
 70
     2
 71
     2
 72
     2
 73
     1
 90
        2
 40
-0.6
 41
30.0
 62
     5
 63
     7
421
 16777215
 74
     0
 91
        4
 64
     7
 65
   257
 75
     1
175
     1
 42
1.0
 92
        0
 66
     7
 43
1.0
 76
     1
 77
     6
 78
     2
 67
     7
 79
     5
170
     0
171
     0
290
     0
174
     0
 93
       13
 44
0.0
173
     0
291
     1
 45
0.0
1001
ACAD
1000
AcDbSavedByObjectVersion
1070
     0
  0
VISUALSTYLE
  5
2E
102
{ACAD_REACTORS
330
2A
102
}
330
2A
100
AcDbVisualStyle
  2
GouraudWithEdges
 70
     3
 71
     2
 72
     2
 73
     1
 90
        2
 40
-0.6
 41
30.0
 62
     5
 63
     7
421
 16777215
 74
     1
 91
        4
 64
     7
 65
   257
 75
     1
175
     1
 42
1.0
 92
        0
 66
   257
 43
1.0
 76
     1
 77
     6
 78
     2
 67
     7
 79
     5
170
     0
171
     0
290
     0
174
     0
 93
       13
 44
0.0
173
     0
291
     1
 45
0.0
1001
ACAD
1000
AcDbSavedByObjectVersion
1070
     0
  0
VISUALSTYLE
  5
38
102
{ACAD_REACTORS
330
2A
102
}
330
2A
100
AcDbVisualStyle
  2
Linepattern
 70
    14
 71
     2
 72
     2
 73
     0
 90
        0
 40
-0.6
 41
-30.0
 62
     5
 63
     7
421
 16777215
 74
     1
 91
        4
 64
     7
 65
   257
 75
     7
175
     7
 42
1.0
 92
        8
 66
     7
 43
1.0
 76
     1
 77
     6
 78
     2
 67
     7
 79
     5
170
     0
171
     0
290
     0
174
     0
 93
        1
 44
0.0
173
     0
291
     1
 45
0.0
1001
ACAD
1000
AcDbSavedByObjectVersion
1070
     0
  0
VISUALSTYLE
  5
33
102
{ACAD_REACTORS
330
2A
102
}
330
2A
100
AcDbVisualStyle
  2
Realistic
 70
     8
 71
     2
 72
     2
 73
     0
 90
        0
 40
-0.6
 41
-30.0
 62
     5
 63
     7
421
 16777215
 74
     1
 91
        0
 64
     7
 65
   257
 75
     1
175
     1
 42
1.0
 92
        8
 66
     8
424
  7895160
 43
1.0
 76
     1
 77
     6
 78
     2
 67
     7
 79
     5
170
     0
171
     0
290
     0
174
     0
 93
       13
 44
0.0
173
     0
291
     0
 45
0.0
1001
ACAD
1000
AcDbSavedByObjectVersion
1070
     0
  0
VISUALSTYLE
  5
37
102
{ACAD_REACTORS
330
2A
102
}
330
2A
100
AcDbVisualStyle
  2
Thicken
 70
    13
 71
     2
 72
     2
 73
     0
 90
        0
 40
-0.6
 41
-30.0
 62
     5
 63
     7
421
 16777215
 74
     1
 91
        4
 64
     7
 65
   257
 75
     1
175
     1
 42
1.0
 92
       12
 66
     7
 43
1.0
 76
     1
 77
     6
 78
     2
 67
     7
 79
     5
170
     0
171
     0
290
     0
174
     0
 93
        1
 44
0.0
173
     0
291
     1
 45
0.0
1001
ACAD
1000
AcDbSavedByObjectVersion
1070
     0
  0
DICTIONARYVAR
  5
1AC
102
{ACAD_REACTORS
330
1AB
102
}
330
1AB
100
DictionaryVariables
280
     0
  1
1:1
  0
ENDSEC
  0
EOF
